Guitaretab - guitar tabs
Song name
# A B C D E F G H I J K L M N O P Q R S T U V W X Y Z

From First To Last - World War Me tab

From First To Last
World War Me 

Tabbed by: steve
Email: omghithere@hotmail.com
Tuned: Drop C (Cgcfad)

~ = Let it ring
. = Palm Mute
h = Hammer on
p = Pull-off
/ \ = Slide
* = Harmonics

Intro
|-------0-0-0-0-0-0-0-0-0-0-0-0-0-0-0-0--------| 
|-------8-7-7-8-7-7-8-7-4-4-4-4-4-4-4-4--------|
|----------------------------------------------|
|-2-------------------------------------2------|
|-2(x16)--------------------------------2(x16)-|
|-2-------------------------------------2------|
   
Verse
|-0-0-0-0-0-0-0-0-0-0-0-0-0-0-0-0------0-0-0-0-0-0-0-0-------|x2
|-8-7-7-8-7-7-8-7-4-4-4-4-4-4-4-4-(x3)-8-7-7-8-7-7-8-7-------|
|------------------------------------------------------------|
|------------------------------------------------------2-----|
|------------------------------------------------------2(x8)-|
|------------------------------------------------------2-----|

chours 
|------------------------------|x2
|------------------------------|
|-12--14--15--14---------------| 
|--x---x---x---x--------1------|
|-10--12--13--12--------1(x8)--|
|-----------------2(x8)-1------|
                        .

Then
|--------------------------| 2x
|--------------------------|
|--------------------------| 
|-------------------1------|
|-------------------1(x8)--|
|-5(x8)-8(x8)-2(x8)-1------|
                    .
[ Tab from: http://www.guitaretab.com/f/from-first-to-last/71717.html ]
Pre verse
|-0-0-0-0-0-0-0-0-0-0-0-0-0-0-0-0-|
|-8-7-7-8-7-7-8-7-4-4-4-4-4-4-4-4-|
|---------------------------------| 
|---------------------------------|
|---------------------------------|
|---------------------------------|
                  . . . . . . . .

Verse x2

Chours x2

Bridge 1
|-------------------------------|
|-------------------------------|
|-------------------------------|
|--5------0------5-----0-------|
|--5(16x)-0(x16)-5(x16)-0(x16)--|
|--5------0------5------0-------|
   .      .      .      .

Bridge 2
|-------------------------------------------|
|-------------------------------------------|
|-------------------------------------------|
|-55-----00-----11-----55-----88-----11-----|
|-55(8x)-00(4x)-11(4x)-55(8x)-88(4x)-11(x4)-|
|-55-----00-----11-----55-----88-----11-----|

|------------------------------|
|------------------------------|
|-12--14--15--14--12--14--8--5-|
|--x---x---x---x---x---x--x--x-|
|-10--12--13--12--10--12--6--7-|
|------------------------------|

Chours x2

Then
|--------------------------| 
|--------------------------|
|--------------------------| 
|-------------------1------|
|-------------------1(x8)--|
|-5(x8)-8(x8)-2(x8)-1------|

|--------------------------|
|--------------------------|
|--------------------------| 
|-------------------1------|
|-------------------1(x24)-|
|-5(x8)-8(x8)-2(x8)-1------|
Related for World War Me tab