Song name
# A B C D E F G H I J K L M N O P Q R S T U V W X Y Z

From First To Last - Mothersound tab

----------------------------------------------------------------------------
			     mothersound - from first to last
----------------------------------------------------------------------------
Tabbed by:you dont have to know my name
Email:pullingupmypants@hotmail.com

Tuning:standard

this is the easiest way to play this song.its not how matt plays it but it sounds right


introx3
e|--------------------------------------------------------------|
B|--10~9~---12-13-15-13-12--------------------------------------|
G|-------10~----------------------------------------------------|
D|--------------------------------------------------------------|
A|--------------------------------------------------------------|
E|--------------------------------------------------------------|

e|--------------------------------------------------------------|
B|--------------------------------------------------------------|
G|--------------------------------------------------------------|
D|--777777666645------------------------------------------------|
A|--777777666645------------------------------------------------|
E|--555555444423------------------------------------------------|

chorus
e|---------------------------------------------------------------------|
B|---------------------------------------------------------------------|
G|---------------------------------------------------------------------|
D|--777777776666666633333333222222223333333322222222333333336666666----|
A|--777777776666666633333333222222223333333322222222333333336666666----|
E|--555555554444444411111111000000001111111100000000111111114444444----|

versex2
e|--------------------------------------------------------------|
B|--------------------------------------------------------------|
G|--------------------------------------------------------------|
D|--77777777777777777777777777555555557-------------------------|
A|--77777777777777777777777777555555557-------------------------|
E|--55555555555555555555555555333333335-------------------------|

chorus
e|---------------------------------------------------------------------|
B|---------------------------------------------------------------------|
G|---------------------------------------------------------------------|
D|--777777776666666633333333222222223333333322222222333333336666666----|
A|--777777776666666633333333222222223333333322222222333333336666666----|
E|--555555554444444411111111000000001111111100000000111111114444444----|

e|-----------------------------------------------------------------|
B|--9-7-9-10-9-7--------9/10-9-7------9/10-9-7------9/10-9-7-------|
G|---------------10-9-7----------10-7----------10-7----------10-7--|
D|-----------------------------------------------------------------|
A|-----------------------------------------------------------------|
E|-----------------------------------------------------------------|

e|----------------------------------------------------------------------|
B|----------------------------------------------------------------------|
G|----------------------------------------------------------------------|
D|--7777777766666666333333332222222277777777666666663333333322222222----|
A|--7777777766666666333333332222222277777777666666663333333322222222----|
E|--5555555544444444111111110000000055555555444444441111111100000000----|


e|------------------------------------------------------------------------|
B|------------------------------------------------------------------------|
G|------------------------------------------------------------------------|
D|--7-6-3-2---------------------------------------------------------------|
A|--7~6~3~2~--------------------------------------------------------------|
E|--5-4-1-0---------------------------------------------------------------|

e|---------------------------------------------------------------------|
B|---------------------------------------------------------------------|
G|---------------------------------------------------------------------|
D|--777-77-7-77-777-666-66-6-66-666-333-33-3-33-333-222-22-2-22-222----|
A|--777-77-7-77-777-666-66-6-66-666-333-33-3-33-333-222-22-2-22-222----|
E|--555-55-5-55-555-444-44-4-44-444-111-11-1-11-111-000-00-0-00-000----|

e|-----------------------------------------------------------------------|
B|-----------------------------------------------------------------------|
G|-----------------------------------------------------------------------|
D|--333333366666666------------------------------------------------------|
A|--333333366666666------------------------------------------------------|
E|--111111144444444------------------------------------------------------|

chorusx2
e|---------------------------------------------------------------------|
B|---------------------------------------------------------------------|
G|---------------------------------------------------------------------|
D|--777777776666666633333333222222223333333322222222333333336666666----|
A|--777777776666666633333333222222223333333322222222333333336666666----|
E|--555555554444444411111111000000001111111100000000111111114444444----|

solo
Tap to rate this tab
# A B C D E F G H I J K L M N O P Q R S T U V W X Y Z