Guitaretab - guitar tabs
Song name
# A B C D E F G H I J K L M N O P Q R S T U V W X Y Z

From First To Last - The Crows Are Coming For Us tab

The Crows Are Coming For Us
by From First to Last

(figure out strumming)
d|-----------------|------7p0--------------------|
a|-0--0-0---0--0-0-|---------8p0-7p0(x6)---------|
f|-0--0-0---0--0-0-|-----------------------------|
c|-5--9/4---5--9/4-|-------------x4--------------|
g|-5--9/4---5--9/4-|-----------------------------|
c|-5--9/4---5--9/4-|-----------------------------|

              ...how does it feel...
d|-15-14-----------------------------------------|
a|------15-14------------------------------------|
f|-----------16-15-------------------------------|
c|-----------------17-16----(tremolo pick--------|
g|------------------------each of these notes)---|
c|-----------------------------------------------|x2
  

d|-----|---------|-------------------------------|
a|-0---|---x4----|-------------------------------|
f|-0---|---------|-------------------------------|
c|-5-4-|-9---2-5-|--4444444444444444-------------|
g|-5-4-|-9---2-5-|--4444444444444444-------------|
c|-5-4-|-9---2-5-|--4444444444444444-------------|

             ...you walk on water...
d|-<7>------------|-7p0--------------------------|
a|----<8>-<7>-<8>-|----8p0-7p0-------------------|
f|----------------|------------------------------|
c|-------x2-------|-----repeat the last 7p0------|
g|----------------|--until the end of the verse--|
c|----------------|------------------------------|


d|-----|---------|-------------------------------|
a|-0---|----x4---|-------------------------------|
f|-0---|---------|-------------------------------|
c|-5-4-|-9---2-5-|--4444444444444444-------------|
g|-5-4-|-9---2-5-|--4444444444444444-------------|
c|-5-4-|-9---2-5-|--4444444444444444-------------|


solo

d|-----------------------------------------------|
a|---8~-7~---8~-7~--8-tril up to-18--------------|
f|-8~------8~------------------------------------|
c|-----------------------------------------------|
g|-----------------------------------------------|
c|-----------------------------------------------|

[ Tab from: http://www.guitaretab.com/f/from-first-to-last/75013.html ]
d|----------------------------------15-----------|
a|-8-tril up to-18^----8-tril up to--------------|
f|-----------------------------------------------|
c|-----------------------------------------------|
g|-----------------------------------------------|
c|-----------------------------------------------|


d|--------------15^------------------------------|
a|-8-tril up to----------------------------------|
f|-----------------------------------------------|
c|-----------------------------------------------|
g|-----------------------------------------------|
c|-----------------------------------------------|


        ...the crows are coming for us...
d|-----------------------------------------------|
a|-121212-----15-1212--------------1212----------|
f|-------11-11-------11-11-11-11-------11-11-11^-|
c|------------------------------9-9--------------|
g|-----------------------------------------------|
c|-----------------------------------------------|x3


d|------------------------------|----------------|
a|-121212-----15-15-17-15-12-15-|-17-15(x8)-17^--|
f|-------11-11------------------|----------------|
c|------------------------------|----------------|
g|------------------------------|----------------|
c|------------------------------|----------------|


d|-----------------------------------------------|
a|-121212-----15-15^-1212------------------------|
f|-------11-11-----------11-11-11-11-11-11-11-11^|
c|-----------------------------------------------|
g|-----------------------------------------------|
c|-----------------------------------------------|x2


d|-1010101010101010----99999999------------------|
a|--x-x-x-x-x-x-x-x----xxxxxxxx------------------|
f|--7-7-7-7-7-7-7-7----66666666------------------|
c|-----------------------------------------------|
g|-----------------------------------------------|
c|-----------------------------------------------|


d|-----|---------|-------------------------------|
a|-0---|---x4----|-------------------------------|
f|-0---|---------|-------------------------------|
c|-5-4-|-9---2-5-|--4444444444444444-------------|
g|-5-4-|-9---2-5-|--4444444444444444-------------|
c|-5-4-|-9---2-5-|--4444444444444444-------------|
Related for The Crows Are Coming For Us tab
The Crows Are Coming For Us chords by From First To Last