Guitaretab - guitar tabs
Song name
# A B C D E F G H I J K L M N O P Q R S T U V W X Y Z

From First To Last - X12 Days Of Xxxmasx tab

----------------------------------------------------------------------------
		       X12 Days of XXXMASX-From First to Last
----------------------------------------------------------------------------
Tabbed by:
Email:

Tuning:EADGBe

**for the most part i just put down the notes, not how many times each chord is hit

riffA
e|--------------------------------|
B|--------------------------------|
G|--------------------------------|
D|-------5------------------------|
A|-3--3--3--3---------------------|
E|-1--1-----1---------------------|

riffB
e|--------------|
B|--------------|
G|--------------|
D|---3---5------|
A|-3-1-3-3-3----|
E|-1---1---1----|

riffC
e|--------------|
B|--------------|
G|-5~~-0-2-3-0--|
D|--------------|
A|--------------|
E|--------------|
[ Tab from: http://www.guitaretab.com/f/from-first-to-last/75851.html ]
riffD
e|-------------------------------------------------------------------------|
B|-------------------------------------------------------------------------|
G|-------------------------------------------------------------------------|
D|--3--5--10---------------------------------------------------------------|
A|--3--5--10---------------------------------------------------------------|
E|--1--3--8----------------------------------------------------------------|

riffA
riffB
riffA
riffC
riffB
riffA
riffC 2x's
riffB
riffA
riffC 3x's
riffB
riffA
riffD
riffD strummed
riffB
riffA
riffC
riffD
riffD strummed
riffB
riffA
riffC 2x's
riffD
riffD strummed
riffB
riffA
riffC 3x's
riffD
riffD strummed
riffB
riffA
riffC 4x's
riffD
riffD strummed
riffB
riffA
riffC 5x's
riffD
riffD strummed
riffB
riffA
riffC 5x's
riffD
riffD strummed
riffB
riffA
riffC 6x's
riffD
riffD strummed
riffB
riffA
riffC 7x's
riffD
riffD strummed
riffB played slowly



| /  slide up
| \  slide down
| h  hammer-on
| p  pull-off
| ~  vibrato
| +  harmonic
| x  Mute note
===============================================================================
Related for X12 Days Of Xxxmasx tab
×
X12 Days Of Xxxmasx