Song name
# A B C D E F G H I J K L M N O P Q R S T U V W X Y Z

From First To Last - Such A Tragedy tab

Drop D

|-4~p0-----2p0------|
|------4p0-----2p0--|
|-------------------|
|-------------------|
|-------------------|
|-------------------|

|-4p0----2p0-----|
|----4p0----2p0--|
|----------------|
|----------------|Repeat 8x
|----------------|
|----------------|

|-4p0-5p0-4p0-2p0-----2p0---------|
|-----------------4p0-----2p0-4p0-|
|---------------------------------|
|---------------------------------|repeat 3x
|---------------------------------|
|---------------------------------|

|-4~5~0~~~~--|
|------------|
|------------|
|------------|
|------------|
|------------|


|---------------------------------------------------------|
|---------------------------------------------------------|
|----6~~~~~-----4~~~~-2~22222222222222----------44444444--|
|-66-6~~~~~66--64~~~~-2~22222222222222-22222222-44444444--|2x
|-44-4~~~~~44--42~~~~-0~00000000000000-22222222-22222222--|
|--------------------------------------22222222-----------|
  ..       ..  .

|-------------------------------------------------|
|-------------------------------------------------|
|-2222222222222222------------------6666----4444--|
|-2222222222222222-2222222222222222-6666----4444--|
|-0000000000000000-2222222222222222-4444----2222--|
|------------------2222222222222222---------------|

|----------------------------------------------------------|
|------------------------------------------5p4-------5p4---|
|-22222222222222444422222222----------6666----4-4444----4--|
|-22222222222222444422222222-22222222-6666------4444-------|
|-00000000000000222200000000-22222222-4444------2222-------|
|----------------------------22222222----------------------|

|-------------------|
|-------------------|
|-2222222222222244--|
|-2222222222222244--|
|-0000000000000022--|
|-------------------|

|------------------------------------|
|------------------------------------|
|-6666666666666666-22222222----------|
|-6666666666666666-22222222-22222222-|3x
|-4444444444444444-00000000-22222222-|
|---------------------------22222222-|

|------------------------------|
|------------------------------|
|-6666666666666666-2~2~--------|
|-6666666666666666-2~2~-2~~~~--|
|-4444444444444444-0~0~-2~~~~--|
|-----------------------2~~~~--|

|-4p0----2p0----4p0----2p0----4~5~0~~~~--|
|----4p0----2p0----4p0----2p0------------|
|----------------------------------------|
|----------------------------------------|
|----------------------------------------|
|----------------------------------------|

|----------------------------------------------------------------------|
|----------------------------------------------------------------------|
|---6~--6~--6~--6~---4~--4~--4~--4~-2222222222222222----------44444444-|
|-666~666~666~666~-444~444~444~444~-2222222222222222-22222222-44444444-|2x
|-444~444~444~444~-222~222~222~222~-0000000000000000-22222222-22222222-|
|----------------------------------------------------22222222----------|
  ..  ..  ..  ..   ..  ..  ..  ..

|-------------------------------------------------|
|-------------------------------------------------|
|-2222222222222222------------------6666----4444--|
|-2222222222222222-2222222222222222-6666----4444--|
|-0000000000000000-2222222222222222-4444----2222--|
|------------------2222222222222222---------------|

|----------------------------------------------------------|
|------------------------------------------5p4-------5p4---|
|-22222222222222444422222222----------6666----4-4444----4--|
|-22222222222222444422222222-22222222-6666------4444-------|
|-00000000000000222200000000-22222222-4444------2222-------|
|----------------------------22222222----------------------|

|------------------------------------|
|------------------------------------|
|-6666666666666666-22222222----------|
|-6666666666666666-22222222-22222222-|3x
|-4444444444444444-00000000-22222222-|
|---------------------------22222222-|

|------------------------------|
|------------------------------|
|-6666666666666666-2~2~--------|
|-6666666666666666-2~2~-2~~~~--|
|-4444444444444444-0~0~-2~~~~--|
|-----------------------2~~~~--|

|---------------------------------------------------|
|---5--5--5--5--7--7--4--4--2--2--2--2--0--0--4--4--|
|-66-66-66-66-66-66-66-66-22-22-22-22-22-22-44-44---|
|---------------------------------------------------|2x
|---------------------------------------------------|
|---------------------------------------------------|
  .. .. .. .. .. .. .. .. .. .. .. .. .. .. .. ..
  
|----------------------------------------------------------------------------|
|----------------------------------------------------------------------------|
|-6666666666666666-111111111111-88888888-2222xxxx2222xxxx-44444444-88888888--|
|-xxxxxxxxxxxxxxxx-x-x-x-x-x-x--xxxxxxxx-2222xxxx2222xxxx-xxxxxxxx-xxxxxxxx--|2x
|-4444444444444444-9-9-9-9-9-9--66666666-0000xxxx0000xxxx-22222222-66666666--|
|--------------------------------------------xxxx----xxxx--------------------|

|------------------------------------|
|------------------------------------|
|-6666666666666666-22222222----------|
|-6666666666666666-22222222-22222222-|3x
|-4444444444444444-00000000-22222222-|
|---------------------------22222222-|

|------------------------------|
|------------------------------|
|-6666666666666666-2~2~--------|
|-6666666666666666-2~2~-2~~~~--|
|-4444444444444444-0~0~-2~~~~--|
|-----------------------2~~~~--|

Tap to rate this tab
# A B C D E F G H I J K L M N O P Q R S T U V W X Y Z