Song name
# A B C D E F G H I J K L M N O P Q R S T U V W X Y Z

From First To Last - Regrets And Romance tab

just fixed some guitar one parts and added some that were missed

intro  Guitar 2   clean
e------------------------------------|
b------------------------------------|
g44444444-44444444-77777777-77777777-|
dxxxxxxxx-xxxxxxxx-xxxxxxxx-xxxxxxxx    figure out rhythm
a22222222-33333333-55555555-77777777-|
d------------------------------------|


guitar 1,2 distorted
e------------------------------------|
b------------------------------------|
g44444444-44444444-44444444-44444444-|
dxxxxxxxx-xxxxxxxx-xxxxxxxx-xxxxxxxx
a22222222-33333333-55555555-77777777-|
d------------------------------------|


wait for guitar 1 to do that little thingy
chorus
e-----------------------------------------------------------------|
b-----------------------------------------------------------------|
g-----------------------------------------------------------------|
d22-2-22-2222-22-2-22-2222-22-2-22-2222-22-2-22-2222-22-2-22-2222-|
a22-2-22-2222-22-2-22-2222-22-2-22-2222-22-2-22-2222-22-2-22-2222-|
d22-2-22-2222-22-2-22-2222-22-2-22-2222-22-2-22-2222-22-2-22-2222-|
         ....         ....         ....         ....         ....

e-----------------------------------------------------------------|
b-----------------------------------------------------------------|
g55555555555555555555555555555555555555555555555555555555555555555
d55555555555555555555555555555555555555555555555555555555555555555
a33333333333333333333333333333333333333333333333333333333333333333
d-----------------------------------------------------------------

wait for guitar 1
verse
e------------------------------------------------------------|
b------------------------------------------------------------|
g---------------55-55-55-55-55----------------55-55-55-55-55-|
d22-22-22-22-22-55-55-55-55-55-22-22-22-22-22-55-55-55-55-55-|
a22-22-22-22-22-33-33-33-33-33-22-22-22-22-22-33-33-33-33-33-|
d22-22-22-22-22----------------22-22-22-22-22----------------|
 .. .. .. .. .. .. .. .. .. .. .. .. .. .. .. .. .. .. .. ..

pre chorus
e----------------------------------|
b----------------------------------|
g2222222222222222-5555555555555555-
d2222222222222222-5555555555555555-
a0000000000000000-3333333333333333-
d----------------------------------

pre chorus prt 2
e-------------------------------------------|
b-------------------------------------------|
g-------------------------------------------|
d2-2222-222-2-2222-2-2222-2-2222-222-2-2222-|
a2-2222-222-2-2222-2-2222-2-2222-222-2-2222-|
d2-2222-222-2-2222-2-2222-2-2222-222-2-2222-|
   ....       ....   ....   ....       ....

repeat chorus x 4  but without mutes

bridge prt 1
e-----------------------------------------------------------|
b-----------------------------------------------------------|
g11111111-1212121212121212-14141414141414141414141414141414-|
dxxxxxxxx-xxxxxxxxxxxxxxxx-xxxxxxxxxxxxxxxxxxxxxxxxxxxxxxxx-
a99999999-1010101010101010-12121212121212121212121212121212-|
d-----------------------------------------------------------|

bridge prt 2
e-----17-15----|
b-----------15-|
g55-5----------|
d55-5----------|      x 4
a33-3----------|
d--------------|


bridge prt 3
e--------------------------------------------------------------------|
b--------------------------------------------------------------------|
g1212121212121212-1414141414141414-1616161616161616-1717171717171717-|
dxxxxxxxxxxxxxxxx-xxxxxxxxxxxxxxxx-xxxxxxxxxxxxxxxx-xxxxxxxxxxxxxxxx-
a1010101010101010-1212121212121212-1414141414141414-1515151515151515-|
d--------------------------------------------------------------------|

repeat prt 2
repeat prt 3

outro
e----------|
b----------|
g55-5------|
d55-5-2222-|
a33-3-2222-|
d-----2222-|
      ....

guitar 1

intro prt 2
e---------------------------|
b---------------------------|
g--------7------------7-----|    x 2
d5---5-----5---5---5----5---|
a--7---7-----7---7---7----7-|
d---------------------------|

chorus
e-----------------------------------------------------|
b-----------------------------------------------------|
g--------7------------7------------7------------7-----|
d5---5-----5---5---5----5---5---5----5---5---5----5---|
a--7---7-----7---7---7----7---7---7----7---7---7----7-|
d-----------------------------------------------------|

e----------------------------------------------------|
b----------------------------------------------------|
g-------4------------4------------4------------4-----|
d5---5----5---5---5----5---5---5----5---5---5----5---|
a--3---3----3---3---3----3---3---3----3---3---3----3-|
d----------------------------------------------------|

verse  little different
e------------------------------------|
b------------------------------------|
g--------7-----^-^---------7-----^-^-|
d--5---5---5---5-5---5---5---5---5-5-|
a7---7-------7-----7---7-------7-----|
d
                                                 x 2

e-------------------------------------|
b--------------------------------^^^^-|
g--------4-----^-^---------4-----4444-|
d--5---5---5---5-5---5---5---5--------|
a3---3-------3-----3---3-------3------|
d-------------------------------------|

pre chorus prt 2
e---------------------------------------------|
b---------------------------------------------|
g4------444-4------4------7------777-7------7-|
dx-xxxx-xxx-x-xxxx-x-xxxx-x-xxxx-xxx-x-xxxx-x-|
a2-xxxx-333-3-xxxx-3-xxxx-5-xxxx-777-7-xxxx-7-|
d--xxxx-------xxxx---xxxx---xxxx-------xxxx---|


repeat chorus  x 4

and as far as i can tell its all the same
maybe somethin in the bridge
Tap to rate this tab
 
# A B C D E F G H I J K L M N O P Q R S T U V W X Y Z