Song name
# A B C D E F G H I J K L M N O P Q R S T U V W X Y Z

From First To Last - Herione tab

Hello, this is Chris Kaneck from Photobooth Romance.
This is the intro tab to Herione by From First To Last.
Most of the album is in Drop "C" but Heroine and Mothersound are in "D"
This is how I play it so how you enjoy!


Tuning: Drop "D"

Bass (Wes Borland on album, Matt Manning in band)

G||----------------------|-----------------------|
D||----------------------|-----------------------|
A||----------------------|-----------------------| repeat 1x
D||--3*----7*----3*----7*|---8*----7*----8*----0-|

Guitar 1 & 2 (Matt And Travis)

E||--------------------------------------------------------------------|
B||--------------------------------------------------------------------|
G||--5555555555555555-999999999999999--555555555555555-999999999999999-|
D||--3333333333333333-777777777777777--333333333333333-777777777777777-|
A||--------------------------------------------------------------------|
D||--------------------------------------------------------------------|

E||--------------------------------------------------------------------|
B||--------------------------------------------------------------------|
G||--10-10-10-10--10-10-10-10-10--10-10-10---9-9-9-9--9-9-9-9-9--9-9-9-|
D||---8--8--8--8---8--8--8--8--8---8--8--8---7-7-7-7--7-7-7-7-7--7-7-7-|
A||--------------------------------------------------------------------|
D||--------------------------------------------------------------------|

E||--------------------------------------------------------------------|
B||--------------------------------------------------------------------|
G||--10-10-10-10--10-10-10-10-10--10-10-10---9-9-9-9--9-9-9-9-9--9-9-9-|
D||---8--8--8--8---8--8--8--8--8---8--8--8---7-7-7-7--7-7-7-7-7--7-7-7-|
A||--------------------------------------------------------------------|
D||--------------------------------------------------------------------|

E||-------------------------------------------|
B||-------------------------------------------|
G||-------------------------------------------|
D||-2-2-2--x-x-x--2-2-2-x-x-x--2-2-2--x-x-x---|
A||--------x-x-x--------x-x-x---------x-x-x---|
D||--------x-x-x--------x-x-x---------x-x-x---|

This is the intro to Herione by From First To Last.
I should have the rest of the song later.
If you have any regards to the tab IM me at kaneckx10 or 
Email me at xxaxenicxvoxxx@aol.com

Thanks and Enjoy!
Tap to rate this tab
 
# A B C D E F G H I J K L M N O P Q R S T U V W X Y Z