Song name
# A B C D E F G H I J K L M N O P Q R S T U V W X Y Z

From First To Last - Two As One tab

Tabbed By: Zero
E-mail: guitar_junkie_0912@yahoo.com

Two As one
Half Step Down

. = Palm
* = Pinch Harmonic


intro/Verse Guitar 1
e|-------------------------------------|
b|-------------------------------------|
g|-------------------------------------|
d|-----------------------------7b------|
a|--------------------------5----------|
d|-4-4-444-7-7-777-777-777-------------|
   . . ... . . ... ... ...     *

Verse Guitar 2
e|---------------------------------------------------------|
b|---------------------------------------------------------|
g|---------------------------------------------------------|
d|-4444-747-7777-----4444-747-7777-----4444-747-7777-------|
a|-4444-747-7777-5-5-4444-747-7777-5-5-4444-747-7777-5-5---|
d|-4444-747-7777-7-7-4444-747-7777-7-7-4444-747-7777-7-7---|

Chorus Guitar 1
e|-------------------------------------------------------------------------------|
b|-------------------------------------------------------------------------------|
g|-------------------------14-14-14----18-18-18----------------------------------|
d|-444444444444-00-0-00-77----------77------------------------------2-4-0--------|
a|-444444444444-00-0-00-77-12-12-12-77-16-16-16-----2---2h4p2p0---0--------4-2---|
d|-444444444444-00-0-00-77----------77-----------22---2---------0----------------|
                   .                             ..   .         .
Chorus Guitar 2
e|-------------------------------------------------------------------------------|
b|-------------------------------------------------------------------------------|
g|-------------------------14-14-14----14-14-14----------------------------------|
d|-444444444444-00-0-00-77----------77------------------------------2-4-0--------|
a|-444444444444-00-0-00-77-12-12-12-77-12-12-12-----2---2h4p2p0---0--------4-2---|
d|-444444444444-00-0-00-77----------77-----------22---2---------0----------------|
                   .                             ..   .         .

Pre Verse Guitar 1
e|-------------------------------------------------------|
b|-------------------------------------------------------|
g|-----------13-13-13-14-14-14-13-13-13-14-14-13-13------|
d|--16-16-16---------------------------------------------|  x2
a|-------------------------------------------------------|
d|-------------------------------------------------------|

Cont.
e|--------------------16-16-16-17-17-17-17-17-17-17----|
b|-----------14-14-14----------------------------------|
g|-----------------------------------------------------|
d|--16-16-16-------------------------------------------|  x2
a|-----------------------------------------------------|
d|-----------------------------------------------------|

Pre Verse guitar 2
e|----------------------------------------------------------------------------|
b|----------------------------------------------------------------------------|
g|-----7777777-----7-7-----77777----777---------------------------------------|
d|-444---------44------444-------44-----4p0-0-4p0-0-0000-2p0-0-2p0-0-0000-----|  x2
a|-444-5555555-44--5-5-444-55555-44-555-4p0-0-4p0-0-0000-2p0-0-2p0-0-0000-----|
d|-444---------44------444-------44-----4p0-0-4p0-0-0000-2p0-0-2p0-0-0000-----|

Repeat Verse
Repeat Chorus
Repeat Pre Verse

Bridge gutar 1
e|--17----17-16----16-14----14-16b17-------|
b|-----14-------14-------14----------------|
g|-----------------------------------------|
d|-----------------------------------------|
a|-----------------------------------------|
d|-----------------------------------------|

Bridge Guitar 2
e|--------------------------------------------------------------------------------|
b|--------------------------------------------------------------------------------|
g|--------------------------------------------------------------------------------|
d|--4p0-0-4p0-0-00000-2p0-0-2p0-0-00000-4p0-0-4p0-0-00000-2p0-0-2p0-0-00000000----|
a|--4p0-0-4p0-0-00000-2p0-0-2p0-0-00000-4p0-0-4p0-0-00000-2p0-0-2p0-0-00000000----|
d|--4p0-0-4p0-0-00000-2p0-0-2p0-0-00000-4p0-0-4p0-0-00000-2p0-0-2p0-0-00000000----|

Pre Chorus
e|------------------------------------------------------------------------------|
b|------------------------------------------------------------------------------|
g|------------------------------------------------------------------------------|
d|-44447477777-7-7-44447477777-7-7-44447477777-7-7-44447477777-7-7777666555444--|
a|------------------------------------------------------------------------------|
d|------------------------------------------------------------------------------|

Repeat Chorus

Outro Guitar 1
e|------------------------------------------------------------|
b|------------------------------------------------------------|
g|-----77777----7-7-----777----------777----7-7-----777---13--|
d|-444-------44-------------0----444------------444-----------|
a|-444-55555-44-5-5-444-555-0----444-555-44-5-5-444-555---11--|
d|-444-------44-----444-----0----444-----44-----444-----------|

Outro Guitar 2
e|----------------------------------------------------------|
b|----------------------------------------------------------|
g|-----77777----7-7-----777----------777----7-7-----777-----|
d|-444-------44-------------0----444------------444-----0---|
a|-444-55555-44-5-5-444-555-0----444-555-44-5-5-444-555-0---|
d|-444-------44-----444-----0----444-----44-----444-----0---|
Tap to rate this tab
# A B C D E F G H I J K L M N O P Q R S T U V W X Y Z