From Indian Lakes - Full Of Wonder tab

Full of Wonder - From Indian Lakes
-------------------------------------------------------------------------------
Tabbed by: Iceshackle Ramsey
Email:stokcton@yahoo.com

Tuning: Standard

The Tremolo picking in this song is just steady 16th notes 

Riff 1                               Riff 2
e|-12-12---------------12-12----------|12-12-------------------------12-12---------|
B|---------------------------13-13----|-----------------13-13/15\13--------13-13---|
G|-------12-12-12h14~ -------------14~|-----12-12-12h14-------------------------14~|
D|------------------------------------|--------------------------------------------|
A|------------------------------------|--------------------------------------------|
E|------------------------------------|--------------------------------------------|

Riff 3                                              (Repeat Riff 2 and 3)         
e|-12-12--------------------------12-12---------|
B|------------------13--------13-------13-13----|
G|-------12-12-12h14--14p12h14---------------14~|
D|----------------------------------------------|
A|----------------------------------------------|
E|----------------------------------------------|

Riff 4                                          Riff 5
e|-12-12------------------------15-15-12-12----|-----------------------------|
B|------------------13-13/15\13------------13~ |-----------------------------|
G|------12-12-12h14----------------------------|-----------------------------|
D|---------------------------------------------|-77-77----77-77--------------|
A|---------------------------------------------|-55-55-55-55-55-55-----------|
E|---------------------------------------------|-------33-------33-----------|

Riff 6                                     Play riff 1,2,3,2,5,and 6
e|---------------------------------------|-----------------------------------|
B|---------------------------------------|-------------------------------5~~ |
G|----------------------------------    -|------------------  play at  --4~~ |
D|/7-5-3-2-0--0h2-3~-/7-5-3-2-0----- x2 -|------------------ end of 6  --5~~ |
A|-----------3------------------3-3-    -|-------------------------------3~~ |
E|---------------------------------------|-----------------------------------|

Riff 7                             n.h
e|---------------------------------(7)------------------------------|--------|
B|---------------------------------------------------------    -----|--5~ ---|
G|-------9-----------9-9-------------------12-10-9-7-9~ --- x2 -----|--4~ ---|
D|-3-5/7--10\7-10-10-----10\--3-5/7---10/7-------------10\-    -----|--5~ ---|
A|------------------------------------------------------------------|--------|
E|------------------------------------------------------------------|--------|

Riff 8
e|---------------------------------------------------------------------------|
B|---------------------------------------------------------------------------|
G|---------------------------------------    --------------------------------|
D|--5h7-5-3-0h2-2--5h7p5-3-2--0h2-3~ ---- x2 --------------------------------|
A|---------------------------3-----------    --------------------------------|
E|---------------------------------------------------------------------------|

Riff 9                                        Riff 10                        
e|-------------------------------------------|------------------tp-tp-tp--tp-|
B|-------------------------------------------|------------------10-10-10--8\-|
G|-------------------------------------    --|-----------    ----------------|
D|-5h7-5-3-0h2-5---5h7p5-3-2---0h2-3~ - x2 --|-tp-tp-tp-- x2 ----------------|
A|---------------------------3---------    --|-12-10-8---    ----------------|
E|-------------------------------------------|-------------------------------|

Play riff 7, but instead of playing the harmonic, play the ninth fret on the g string

Riff 11                            Riff 12
e|---------------------------------|------------------------------------------|
B|---------------------------------|-10/8-8/6-5-6~ -10/8-8/6-5-6-8~ ----------|
G|---------------------------------|------------------------------------------|
D|-----8~------5~ -----12~----3-2~ |------------------------------------------|
A|---8-------5------12------3------|------------------------------------------|
E|-6--6----3--3---10--10---1-1-----|------------------------------------------|

Riff 13             (Play riff 12)   Riff 14
e|-------------10~ -----------------|----------------------------------------|
B|-8\10-10-10----8/10-10-11-11-10~ -|-10/11-11-11-11/10-10-10-10/8-8-8-8/10~ |
G|----------------------------------|----------------------------------------|
D|----------------------------------|----------------------------------------|
A|----------------------------------|----------------------------------------|
E|----------------------------------|----------------------------------------|

Riff 15
e|---------------------------------------------------------------------------|
B|-8/10-8-6-5-3-1/3/5/6~ -8/10-8-6-5-3-1/3/5/6~ -----------------------------|
G|----------------------------------------------------    -------------------|
D|-12tp-------------------10tp------8tp--------------- x3 -------------------|
A|----------------------------------------------------    -------------------|
E|---------------------------------------------------------------------------|

Riff 16
e|---------------------------------------------------------------------------|
B|-8/10-8-6-5-3-1/3/5/6~ -8/10-8-6-5-3-1/5/3/1~ -----------------------------|
G|---------------------------------------------------------------------------|
D|---------------------------------------------------------------------------|
A|---------------------------------------------------------------------------|
E|---------------------------------------------------------------------------|

Riff 17
e|------------------------------------------------------------------|
B|------------------------------------------------------------------|
G|------------------------------------------------------------------|
D|------------------------------------------------------------------|
A|-11111111----------55555555----------11111111--------------5~ ----|
E|----------33333333----------11111111----------3333rest --1-----1--|

Play Riff 5

Order:
Riff 1
Riff 2
Riff 3
Riff 2
Riff 3
Riff 4
Riff 5
Riff 6
Riff 1
Riff 2
Riff 3
Riff 2
Riff 5
Riff 6
Riff 7
Riff 8
Riff 9
Riff 10
Riff 7
Riff 11
Riff 12
Riff 13
Riff 12
Riff 14
Riff 15
Riff 16
Riff 17
Riff 5




************************************

| /   slide up
| \   slide down
| h   hammer-on
| p   pull-off
| ~   vibrato
| +   harmonic
| x   Mute note
| b   Bend
| pb  Pre-bend
| br  Bend release
| pbr Pre-bend release
| brb Bend release bend
| tp  Tremolo pick
| nh  Natural Harmonic
************************************
Tap to rate this tab
 
# A B C D E F G H I J K L M N O P Q R S T U V W X Y Z