Song name
# A B C D E F G H I J K L M N O P Q R S T U V W X Y Z

From Indian Lakes - I Dont Know You tab

This a great song off From Indian Lakes' new CD Able Bodies.
I used this video to figure out the guitar.
Album version is a little slower tempo than in the given video.
http://www.youtube.com/watch?v=xezTgUzFgOw

Finger picked (Just follow the song's rhythm/style)
Pretty sure it's in 3/4 timing

Verse:(Fingerpicked)
e|------------|
B|--1--1--1---|
G|------------|
D|--2--2--2---|
A|--3--x--3---|
E|--x--x--x---|

Prechorus: (Strummed w/ fingers)
e|------------      e|-------------|
B|------------      B|-------------|
G|--7--10--5--      A|--7--10--5---|
D|--7--10--5--  Or  D|--7--10--5---|
A|--7--10--5--      A|--5--8---3---|
E|--5--8---3--      E|-------------|

Chorus: (Fingerpicked again)
e|-----------------|
B|--8---8---7---3--|
G|-----------------|
D|--7---7----------|
A|--8---8---7---2--|
E|----------8---3--|

Verse 2:(Fingerpicked)
e|------------|
B|--1--1--1---|
G|------------|
D|--2--2--2---|
A|--3--x--3---|
E|--x--x--x---|

Prechorus: (Strummed w/ fingers)
e|------------      e|-------------|
B|------------      B|-------------|
G|--7--10--5--      A|--7--10--5---|
D|--7--10--5--  Or  D|--7--10--5---|
A|--7--10--5--      A|--5--8---3---|
E|--5--8---3--      E|-------------|

Chorus: (Fingerpicked again)
e|-----------------|
B|--8---8---7---3--|
G|-----------------|
D|--7---7----------|
A|--8---8---7---2--|
E|----------8---3--|

Final Verse/Outro:
e|-----------------|
B|---1---1---(1)---|
G|-----------------|
D|---2---2---(2)---|
A|---3---x---(x)---|
E|---x---x---(3)---|
              ^ I'm not absolutely certain on that chord.
                Closest i've found yet.

Final Chord:
e|-------|
B|---1---|
G|-------|
D|---2---|
A|---3---|
E|---x---|
Tap to rate this tab
# A B C D E F G H I J K L M N O P Q R S T U V W X Y Z