Song name
# A B C D E F G H I J K L M N O P Q R S T U V W X Y Z

From Indian Lakes - Below tab

-------------------------------------------------------------------------------
                             BELOW - From Indian Lakes - Able Bodies
-------------------------------------------------------------------------------
Tabbed by: timeconsumr

Tuning:Standard

tabbed this song by ear. The bridge needs work but i'm not talented enough
to pick up every note in it. I've guessed and mimicked the riff in it. The rest
should be pretty solid! Be sure to rate and comment for improvements!

Intro:
e|-----------------------------------------------------------------------------|
B|-7-5--7-5--7-5--7-5----------------------------------------------------------|
G|----------------------4-7-4-7-4-7-4-7----------------------------------------|
D|-----------------------------------------------------------------------------|
A|-----------------------------------------------------------------------------|
E|-----------------------------------------------------------------------------|

Verse 1:
e|---------------------------------------------------------------------------|
B|---------------------------------------------------------------------------|
G|--5~------3~---------------------------------------------------------------|
D|--7~------5~---2X----------------------------------------------------------|
A|--7~------5~---------------------------------------------------------------|
E|---------------------------------------------------------------------------|

Chorus Part A:
"I'm Anchored..." (Strum) 4x
e|-----------------------------------------------------------------------------|
B|-----------------------------------------------------------------------------|
G|-----------------------------------------------------------------------------|
D|-9-------7-------------------------------------------------------------------|
A|-9-------7-------------------------------------------------------------------|
E|-7-------5-------------------------------------------------------------------|

Chorus Part B;
"I stood at the bottom all I watched is lovers last first kiss"
e|--------------------------------------------------------------------------------|
B|--------------------------------------------------------------------------------|
G|--------------------------------------------------------------------------------|
D|-9---------7------------5-------------------------------------------------------|
A|-9---------7------------5-------------------------------------------------------|
E|-7---------5------------3-------------------------------------------------------|

Post-Chorus
"I remember it like it happened only moments ago" 4X (Chorus part b chords repeated for this)
e|---------------------------------------------------------------------------|
B|-3~-2~-0~------------------------------------------------------------------|
G|---------------------------------------------------------------------------|
D|---------------------------------------------------------------------------|
A|---------------------------------------------------------------------------|
E|---------------------------------------------------------------------------|

Verse: 4X
Chorus Part A+B
Post-Chorus-4X

Bridge 3:09: 4X (Post Chorus plays simultaneously 4x)
e|--------------------------------5\7/5----------------------------------------|
B|--5h7p5h7p5---------5h7p5h7p5------------------------------------------------|
G|-------------8p7-------------------------------------------------------------|
D|-----------------------------------------------------------------------------|
A|-----------------------------------------------------------------------------|
E|-----------------------------------------------------------------------------|

Breakdown: 2x
"To hold on to..."

e|------------------------------------------------------------------------------|
B|------------------------------------------------------------------------------|
G|--~---------------------------------------------------------------------------|
D|--7--------5------------------------------------------------------------------|
A|--7--------5------------------------------------------------------------------|
E|--5--------3------------------------------------------------------------------|

Outro: 2X
e|-----------------------------------------------------------------------------|
B|-7-5--7--5--7--5--7--5--3-2-3-2-3-2-3-2--------------------------------------|
G|-----------------------------------------------------------------------------|
D|-----------------------------------------------------------------------------|
A|-----------------------------------------------------------------------------|
E|-----------------------------------------------------------------------------|
Tap to rate this tab
# A B C D E F G H I J K L M N O P Q R S T U V W X Y Z