Song name
# A B C D E F G H I J K L M N O P Q R S T U V W X Y Z

From Indian Lakes - We Are Invincible tab

-------------------------------------------------------------------------------
                             WE ARE INVINCIBLE (Intro) - From Indian Lakes
-------------------------------------------------------------------------------
Tabbed by: Josh Gamble

From Indian Lakes is a really really good band with awesome guitar parts. I'm gonna be 
tabbing more of their songs very soon. If anyone wants to add the rest of the song, lemme know!

GUITAR 1 (Rhythm):

e|--------------------------------------------------------------------------------------|
B|--------------------------------------------------------------------------------------|
G|--------------------------------------------------------------------------------------|
D|--7--7--7------------------------------------10-10-10---------------------------------|
A|--7--7--7------------------------------------10-10-10---------------------------------|
E|--5--5--5-------------------------------------8--8--8---------------------------------|

GUITAR 2 (Lead):
e|---------------------------------------------------------------------------------------|
B|-------12-------------12----------------------------17--------------17-----------------|
G|--9h12---12p9---9h12---12p9---9h12-----------14h17--17p14---14h17---17p14--14h17-------|
D|--------------12-------------12-----------------------------17--------------17---------|
A|---------------------------------------------------------------------------------------|
E|---------------------------------------------------------------------------------------|

GUITAR  1 (Rhythm):
e|--------------------------------------------------------------------------------------|
B|--------------------------------------------------------------------------------------|
G|--------------------------------------------------------------------------------------|
D|--7--7--7------------------------------------10-10-10------------------------12-------|
A|--7--7--7------------------------------------10-10-10------------------------12-------|
E|--5--5--5-------------------------------------8--8--8------------------------ 10------|

GUITAR 2 (Lead):
e|---------------------------------------------------------------------------------------|
B|-------12-------------12----------------------------17--------------17-----------------|
G|--9h12---12p9---9h12---12p9---9h12-----------14h17--17p14---14h17---17p14--14h17-------|
D|--------------12-------------12-----------------------------17--------------17---------|
A|---------------------------------------------------------------------------------------|
E|---------------------------------------------------------------------------------------|



************************************

| /   slide up
| \   slide down
| h   hammer-on
| p   pull-off
| ~   vibrato
| +   harmonic
| x   Mute note
| b   Bend
| pb  Pre-bend
| br  Bend release
| pbr Pre-bend release
| brb Bend release bend

************************************
Tap to rate this tab
# A B C D E F G H I J K L M N O P Q R S T U V W X Y Z