Song name
# A B C D E F G H I J K L M N O P Q R S T U V W X Y Z

From Indian Lakes - We Thought Your Hearts Were Beating tab

-------------------------------------------------------------------------------
We Thought Your Hearts Were Beating - From Indian Lakes
-------------------------------------------------------------------------------

Tuning: Standard

Intro
e|-19p17p16---------------------16----16h17p16---------------------16~\12---|
B|----------17--------------17~----------------17-------------17~---------14|
G|-------------16-18-16/18~-----------------------16-18-16/18~---16---------|
D|--------------------------------------------------------------------------|
A|--------------------------------------------------------------------------|
E|--------------------------------------------------------------------------|

e|-19p17p16---------------------16---16h17p16---------------------16~-------|
B|----------17--------------17~---------------17-------------17------17---17|
G|-------------16-18-16/18~----------------------16-18-16/18~---16------18--|
D|--------------------------------------------------------------------------|
A|--------------------------------------------------------------------------|
E|--------------------------------------------------------------------------|

e|-19p17p16---------------------16---16h17p16---------------------16~-------|
B|----------17--------------17~---------------17-------------17------17---17|
G|-------------16-18-16/18~----------------------16-18-16/18~---16------18--|
D|--------------------------------------------------------------------------|
A|--------------------------------------------------------------------------|
E|--------------------------------------------------------------------------|

e|-19p17p16---------------------16--16h17p16---------------------16~-----16~|
B|----------17--------------17~---------------17-------------17------17-----|
G|-------------16-18-16/18~----------------------16-18-16/18~---16------18--|
D|--------------------------------------------------------------------------|
A|--------------------------------------------------------------------------|
E|--------------------------------------------------------------------------|

Verse 1
e|---------------------------------------------------------------------------|
B|---------------------------------------------------------------------------|
G|---------------------------------------------------------------------------|
D|--(6)--(6)-----------------------------------------------------------------|x2
A|---4x16-0x16---------------------------------------------------------------|
E|---------------------------------------------------------------------------|

e|--------16~----19-------19-16~-16~-----------------------------------------|
B|----17~--------------17----------------------------------------------------|
G|-18---------------18-------------------------------------------------------|
D|---------------------------------------------------------------------------|
A|---------------------------------------------------------------------------|
E|---------------------------------------------------------------------------|

Chorus 1, 6/4 Version
e|---------------------------------------------------------------------------|
B|------------------------------------------------12-------------------------|
G|-9-9-9-8-8-8---------------9-9-9-8-8-8-----9-11----------------------------|
D|-------------9---11-11-----------------9-----------------------------------|x4
A|-----------------------9---------------------------------------------------|
E|---------------------------------------------------------------------------|






Verse 2
e|---------11~-----------------------------11~-------------------------------|
B|----12-------12------------12~-----12--------12----------------------------|
G|-13----13-------13~-----13------13----13--------13~------------------------|
D|---------------------------------------------------------------------------|
A|---------------------------------------------------------------------------|
E|---------------------------------------------------------------------------|

e|-----------------------16~-------------------------------------------------|
B|----17~----------17--------17----------------------------------------------|
G|-18----(18~)---18----18--------18~-----------------------------------------|x2
D|---------------------------------------------------------------------------|
A|---------------------------------------------------------------------------|
E|---------------------------------------------------------------------------|

Chorus 1
e|---------------------------------------------------------------------------|
B|--------------------------------------12-----------------------------------|
G|-9~-8~--------------9~-8~-------9h11---------------------------------------|
D|-------9-11---------------9-11---------------------------------------------|x4
A|-------------9~--11--------------------------------------------------------|
E|---------------------------------------------------------------------------|

Verse 3
e|---------------------------------------------------------------------------|
B|----------------------------------------------------12~--------------------|
G|---8-9~-8~-------9~----9h11~----------11~----11h13~------(13~)-------------|
D|-9----------9/11----11----------11/13~----13-------------------------------|
A|-7-------------------------------------------------------------------------|
E|---------------------------------------------------------------------------|

e|---------------------------------------------------------------------------|
B|----------------------------12~--------------------------------------------|
G|---------9~-9-8------11h13~------------------------------------------------|
D|-9-9-9-9--------9-11-------------------------------------------------------|
A|-7-7-7-7-------------------------------------------------------------------|
E|---------------------------------------------------------------------------|

Repeat Verse 2

Chorus 2
e|---------------------------------------------------------------------------|
B|---------------------------------------------------------------------------|
G|-------13x16-16x16-13x16---------------------------------------------------|
D|-14x16---------------------------------------------------------------------|x2
A|---------------------------------------------------------------------------|
E|---------------------------------------------------------------------------|

Instrumental Section
e|---------------------------------------------------------------------------|
B|-------------------------------------------------12~-----------------------|
G|-9-8-----------------9----9-8-------11/13~-13-13---------------------------|
D|-----9-11------9-h11----------9-11-----------------------------------------|
A|----------9/11-------------------------------------------------------------|
E|---------------------------------------------------------------------------|

e|-11h12p11-----------------11-12-12-11-14-12p11-----------------------------|
B|----------12-----------12----------------------12~-------------------------|
G|-------------13~-11-13-----------------------------------------------------|
D|---------------------------------------------------------------------------|
A|---------------------------------------------------------------------------|
E|---------------------------------------------------------------------------|

e|-12-12-12-12--12/14-14-14-14--14/12-12-12-11~------------------------------|
B|-14-14-14-14--14/16-16-16-16--16/14-14-1412~------------------------------|
G|---------------------------------------------------------------------------|
D|---------------------------------------------------------------------------|
A|---------------------------------------------------------------------------|
E|---------------------------------------------------------------------------|

e|-12-12-12-12---12/14~-14-14-14--16-16-16-16---19~--------------------------|
B|---------------------------------------------------------------------------|
G|---------------------------------------------------------------------------|
D|---------------------------------------------------------------------------|
A|---------------------------------------------------------------------------|
E|---------------------------------------------------------------------------|

Outro Chorus
e|---------------------------------------------------------------------------|
B|---------------------------------------------------------------------------|
G|-9x16-13x16-16x16-13x16----------------------------------------------------|
D|---------------------------------------------------------------------------|x2
A|-7x1611x16-14x16-11x16----------------------------------------------------|
E|---------------------------------------------------------------------------|

Outro
e|---------------------------------------------------------------------------|
B|-----------------------------9---------------------------------------------|
G|-8-9-8-----------------9-11~---11~---8-9-8-----------------9~--9~-9--------|
D|-------9-11-------9-11---------------------9-11-------9-11-----------------|
A|-------------9-11--------------------------------9-11----------------------|
E|---------------------------------------------------------------------------|\
                                                                               -x2
e|---------------------------------------------------------------------------|/
B|-----------------------------9---------------------------------------------|
G|-8-9-8-----------------9-11~---11~---8-9-8-----------------9~--9-9-9/------|
D|-------9-11-------9-11---------------------9-11-------9-11-----------------|
A|-------------9-11--------------------------------9-11----------------------|
E|---------------------------------------------------------------------------|


************************************

| /   slide up
| \   slide down
| h   hammer-on
| p   pull-off
| ~   vibrato
| +   harmonic
| x   Mute note
| b   Bend
| pb  Pre-bend
| br  Bend release
| pbr Pre-bend release
| brb Bend release bend

************************************
Tap to rate this tab
# A B C D E F G H I J K L M N O P Q R S T U V W X Y Z