Song name
# A B C D E F G H I J K L M N O P Q R S T U V W X Y Z

From The Fire - Same Song tab

-------------------------------------------------------------------------------
                             SAME SONG - From The Fire
-------------------------------------------------------------------------------
Tabbed by: beanboy      
Band - http://heavyharmonies.com/cgi-bin/band.cgi?BandNum=2087
Album - http://heavyharmonies.com/cgi-bin/glamcd.cgi?BandNum=2087&CDName=Thirty
+Days+and+Dirty+Nights
Video - http://www.youtube.com/watch?v=JoksDwVmMf8

Tuning: Standard


Intro

e|-------------5---5----------------------------------------------------------|
B|--/10~-------5---5----------------------------------------------------------|
G|------9~-----5---5----------------------------------------------------------|
D|--------10~--7---7----------------------------------------------------------|
A|-------------7---7----------------------------------------------------------|
E|-------------5---5----------------------------------------------------------|


Verse

e|---------------------------------------------------------------------------|
B|---------------------------------------------------------------------------|
G|---------------------------------------------------------------------------|
D|--7------------------------------------------------------------------------|
A|--7------------------------------------------------------------------------|
E|--5--chug------------------------------------------------------------------|
Keyboard - C B C B E F D E F D


PreChorus

e|-----0-------0-----0-------0-----------------------------------------------|
B|-------1-------3-----1-------3---------------------------------------------|
G|---------0/2-----------0/2-------------------------------------------------|
D|---------------------------------------------------------------------------|
A|---------------------------------------------------------------------------|
E|---------------------------------------------------------------------------|
Keys- C        D    C        D 


Chorus

e|-----------------------------|---------------------10-7---10--------------------|
B|-----------------------------|--------------------------9----9---more fast run--|
G|-----2-----7-7--2------------|--------------------------------------------------|
D|-----2--3--7-7--2--3--5-5----|--2------/9-/12-/14-------------------------------|
A|-----0--3--5-5--0--3--5-5----|--2---/7------------------------------------------|
E|--------1----------1--3-5----|--0-----------------------------------------------|
Keys-  E  F  D D  E  F  D D       E


Underneath Solo

e|---------------------------------------------------------------------------|
B|---------------------------------------------------------------------------|
G|---------------------------------------------------------------------------|
D|-----7--5--7--5------------------------------------------------------------|
A|-----7--5--7--5------------------------------------------------------------|
E|-----5--3--5--3------------------------------------------------------------|
Keys - E  D  E FD

Verse

e|--------------------------------------------------------------------------|
B|--------------------------------------------------------------------------|
G|--------------------------------------------------------------------------|
D|--7-----------------------------------------------------------------------|
A|--7-----------------------------------------------------------------------|
E|--5--chug-----------------------------------------------------------------|
Keyboard - C B C B 


PreChorus

e|-----0-------0-----0-------0----------------------------------------------|
B|-------1-------3-----1-------3--------------------------------------------|
G|---------0/2-----------0/2------------------------------------------------|
D|--------------------------------------------------------------------------|
A|--------------------------------------------------------------------------|
E|--------------------------------------------------------------------------|
Keys-  E        D    C        D 


Chorus till end

e|-----------------------------|
B|-----------------------------|
G|-----2----------2------------|
D|-----2--3--5-5--2--3--5-5----|
A|-----0--3--5-5--0--3--5-5----|
E|--------1--3-3-----1--3-5----|
Keys-  E  F  D D  E  F  D D      


************************************

| /   slide up
| \   slide down
| h   hammer-on
| p   pull-off
| ~   vibrato
| +   harmonic
| x   Mute note
| b   Bend
| pb  Pre-bend
| br  Bend release
| pbr Pre-bend release
| brb Bend release bend

************************************
Tap to rate this tab
 
# A B C D E F G H I J K L M N O P Q R S T U V W X Y Z