Song name
# A B C D E F G H I J K L M N O P Q R S T U V W X Y Z

From The Ruins - Bowling Down tab

play 5 times
|-------------------------------------------------|
|-------------------------------------------------|
|-------------------------------------------------|
|-----222--3--5--2--2222222222--3--5--5-5-5\7-7---|
|-----222--3--5--2--2222222222--3--5--3-3-3\5-5---|
|-----222--3--5--2--2222222222--3--5--------------|
     ppp           pppppppppp

play 4 times
|-------------------------------------------------|
|-------------------------------------------------|
|-------------------------------------------------|
|---222222222222722222222-5-5-5-5\7-7-------------|
|---222222222222522222222-3-3-3-3\5-5-------------|
|---222222222222-22222222-------------------------|


play 2 times
|-------------------------------------------------|
|-------------------------------------------------|
|-------------------------------------------------|
|-----222--3--5--2--2222222222--3--5--5-5-5\7-7---|
|-----222--3--5--2--2222222222--3--5--3-3-3\5-5---|
|-----222--3--5--2--2222222222--3--5--------------|

play 2 times
|-------------------------------------------------|
|-------------------------------------------------|
|-------------------------------------------------|
|-----2-------------------------------5-5-5\7-7---|
|-----2-------------------------------3-3-3\5-5---|
|-----2-------------------------------------------|


play 2 times
|-------------------------------------------------|
|-------------------------------------------------|
|-------------------------------------------------|
|-----222--3--5--2--2222222222--3--5--5-5-5\7-7---|
|-----222--3--5--2--2222222222--3--5--3-3-3\5-5---|
|-----222--3--5--2--2222222222--3--5--------------|


|-------------------------------------------------|
|-------------------------------------------------|
|-------------------------------------------------|
|---000000000000700000000-5-5-5-5\7-7-------------|
|---000000000000500000000-3-3-3-3\5-5-------------|
|---000000000000-00000000-------------------------|

|-------------------------------------------------|
|-------------------------------------------------|
|-------------------------------------------------|
|---000000000000700000000--3-2-5------------------|
|---000000000000500000000--3-2-5------------------|
|---000000000000-00000000--3-2-5------------------|


|-------------------------------------------------|
|-------------------------------------------------|
|-------------------------------------------------|
|----222222222222222222222222---------------------|
|----222222222222222222222222---------------------|
|----222222222222222222222222---------------------|


play 2 times
|-------------------------------------------------|
|-------------------------------------------------|
|-------------------------------------------------|
|----2222222222227--------------------------------|
|----2222222222225--------------------------------|
|----222222222222---------------------------------|
Tap to rate this tab
# A B C D E F G H I J K L M N O P Q R S T U V W X Y Z