Song name
# A B C D E F G H I J K L M N O P Q R S T U V W X Y Z

From The Shallows - The Chalice Of Mankind tab

-----------------------------------------------------------------
The Chalice of Mankind - From the Shallows
-----------------------------------------------------------------
Tuning: Bb  (Bb, F, Bb, Eb, G, C)

+ - let ring out
3 - triplet

|-------------------------------------------------------------|
|-------------------------------------------------------------|
|-----minor 3rd harmony after 2nd time------------------------|
|---------------------------------|---------------------------|
|---5-7-8-----------5-7-8-1---5---|x4-------------------------|
|000------000000000---------------|---------------------------|
  3        3  3  3
|Breakdown-------------------------------------------------|
|----------------------------------------------------------|
|----------------------------------------------------------|
|----------------------------------------------|-----------|
|----------------------------------1---5-0---4-|x2---------|
|000--000000000--000000000--000000-------------|-----------|
  3    3  3  3    3  3  3    3  3
|-------------------------------------------------------------|
|-------------------------------------------------------------|
|-----minor 3rd harmony after 2nd time------------------------|
|---------------------------|---------------------------------|
|5555-8-7-4444----5----4----|x4-------------------------------|
|--------------00+--00+-----|---------------------------------|

|----------------------------------------------------------|
|----------------------------------------------------------|
|----------------------------------------------------------|
|--------7-----------------7-5-3--|------------------------|
|7-5-7-8---8-7-5-3-8-7-5-3--------|x4----------------------|
|---------------------------------|------------------------|

|-------------------------------------------------------------|
|-------------------------------------------------------------|
|-----minor 3rd harmony after 2nd time------------------------|
|---------------------------|---------------------------------|
|5555-8-7-4444----5----4----|x2-------------------------------|
|--------------00+--00+-----|---------------------------------|

|-------------------------------------------------------------|
|-------------------------------------------------------------|
|-------------------------------------------------------------|
|-------------------------------------------------------------|
|5------4---8+------------------------------------------------|
|--------------Breakdown listen and find pattern yourself-----|

|-------------------------------------------------------------|
|-------------------------------------------------------------|
|-----minor 3rd harmony after 2nd time------------------------|
|---------------------------------|---------------------------|
|---5-7-8-----------5-7-8-1---5---|x4-------------------------|
|000------000000000---------------|---------------------------|
  3        3  3  3

|----------------------------------------------------------|
|----------------------------------------------------------|
|----------------------------------------------------------|
|----------------------------------------------------------|
|-12-12-12-12-12-12-12-13-13-13--10-10-10-10--1---5-0---4--|
|0--0--0--0--0--0--0--0---------0--0--0--0-----------------|

A guitar solo comes in and then the 2nd breakdown repeats until the end
Tap to rate this tab
# A B C D E F G H I J K L M N O P Q R S T U V W X Y Z