Song name
# A B C D E F G H I J K L M N O P Q R S T U V W X Y Z

Front Agnostic - Gotta Go tab

This is an awasome song from Agnostic Front
I didn't figure out the solo so sorry!
Have fun!

INTRO(a couple of times)

e|------------------------------------------------------------------|
B|------------------------------------------------------------------|
G|9---9--------12----12----------7----7--------9--------------------|
D|9-----9------12-------12-------7------7------9--------------------|
A|7-7-----7----10-10-------10----5--5-----5----7--------------------|
E|------------------------------------------------------------------|

Verse

e|------------------------------------------------------------------|
B|------------------------------------------------------------------|
G|9-9-9-9-9-9-9--12-12-12-12-12-12-12--7-7-7-7-7-7-7--9-9-9-9-9-9-9-|
D|9-9-9-9-9-9-9--12-12-12-12-12-12-12--7-7-7-7-7-7-7--9-9-9-9-9-9-9-|
A|7-7-7-7-7-7-7--10-10-10-10-10-10-10--5-5-5-5-5-5-5--7-7-7-7-7-7-7-|
E|------------------------------------------------------------------|

Chorus (change rythm the third time)
e|------------------------------------------------------------------------------------|
B|------------------------------------------------------------------------------------|
G|9-9->-12-12->-7-7->-9-9-------------------------------------------------------------|
D|9-9->-12-12->-7-7->-9-9-------------------------------------------------------------|
A|7-7->-10-10->-5-5->-7-7-------------------------------------------------------------|
E|------------------------------------------------------------------------------------|
Tap to rate this tab
# A B C D E F G H I J K L M N O P Q R S T U V W X Y Z