Song name
# A B C D E F G H I J K L M N O P Q R S T U V W X Y Z

Front Line Assembly - Unleashed tab

Band/Song: FrontLine Assembly - Unleashed
Album: Artificial Soldier
MySpace URL:http://www.myspace.com/thefrontlineassembly  

Tabbed by: RhoninX - http://profile.ultimate-guitar.com/RhoninX/
Email: lisekpl(a)o2.pl
Date: 20.10.2008

Tuning: CGD#A#FC

                PM PM PM      PM PM          PM PM PM PM PM         
                E  E  E  Q    E  E  E     E  E  E  E  E  E  Q    10x
C ||-------||--------------------------|--------------------------||
G ||-------||--------------------------|--------------------------||
D#||-------||*-------------------------|--------------------3----*||
A#||-------||*-----------7----------3--|--L-----------------3----*||
F ||-------||---7--7--7--7----7--7--3--|--L--3--3--3--3--3--1-----||
C ||-------||---5--5--5--5----5--5--1--|--L--1--1--1--1--1--------||


   W                   W                   W                   W                 
--------------------|-------------------|-------------------|-------------------|
--------------------|-------------------|-------------------|-------------------|
*-------------------|-------------------|-------------------|-------------------|
*-------------------|--2----------------|--3----------------|--2----------------|
---5----------------|--0----------------|--1----------------|--0----------------|
---3----------------|-------------------|-------------------|-------------------|


  W                   W                   W                   W                   
-------------------|-------------------|-------------------|--------------------||
-------------------|-------------------|-------------------|--------------------||
-------------------|-------------------|-------------------|-------------------*||
-------------------|--2----------------|--3----------------|--5----------------*||
--5----------------|--0----------------|--1----------------|--3-----------------||
--3----------------|-------------------|-------------------|--------------------||


                        PM PM PM      PM PM          PM PM PM PM PM         
                        E  E  E  Q    E  E  E     E  E  E  E  E  E  Q     8x
-------------------||--------------------------|--------------------------||
-------------------||--------------------------|--------------------------||
-------------------||*-------------------------|--------------------3----*||
-------------------||*-----------7----------3--|--L-----------------3----*||
-------------------||---7--7--7--7----7--7--3--|--L--3--3--3--3--3--1-----||
-------------------||---5--5--5--5----5--5--1--|--L--1--1--1--1--1--------||


   W                   W                   W                   W                 
--------------------|-------------------|-------------------|-------------------|
--------------------|-------------------|-------------------|-------------------|
*-------------------|-------------------|-------------------|-------------------|
*-------------------|--2----------------|--3----------------|--2----------------|
---5----------------|--0----------------|--1----------------|--0----------------|
---3----------------|-------------------|-------------------|-------------------|


  W                   W                   W                   W                   
-------------------|-------------------|-------------------|--------------------||
-------------------|-------------------|-------------------|--------------------||
-------------------|-------------------|-------------------|-------------------*||
-------------------|--2----------------|--3----------------|--5----------------*||
--5----------------|--0----------------|--1----------------|--3-----------------||
--3----------------|-------------------|-------------------|--------------------||


   PM PM PM      PM PM          PM PM PM PM PM         
   E  E  E  Q    E  E  E     E  E  E  E  E  E  Q     8x
--------------------------|--------------------------||
--------------------------|--------------------------||
*-------------------------|--------------------3----*||
*-----------7----------3--|--L-----------------3----*||
---7--7--7--7----7--7--3--|--L--3--3--3--3--3--1-----||
---5--5--5--5----5--5--1--|--L--1--1--1--1--1--------||




Duration Legend
---------------
W - whole
Q - quarter
E - 8th

Tablature Legend
----------------
L - tied note
PM - palm mute
Tap to rate this tab
# A B C D E F G H I J K L M N O P Q R S T U V W X Y Z