Song name
# A B C D E F G H I J K L M N O P Q R S T U V W X Y Z

Front Porch Step - If I Tremble tab

Front Porch Step - If I Tremble
Standard Tuning
Capo can be used (1st fret)



Intro & Verse
E|----------------------------------------------------------------| x4
B|----------------------------------------------------------------|
G|----------------------------------------------------------------|
D|----------------------------------------------------------------|
A|-------------------------------------------------9-9-9-9-8-8-8--|
E|9-9-9-9-9-9-9-9-8-8-8-8-8-8-8-8-6-6-6-6-6-6-6-6-6---------------|


Chorus (power chords)
E|------------------------------------------------------------------|
B|------------------------------------------------------------------|
G|------------------------------------------------------------------|
D|11-11-11-11-11-11-11-11-10-10-10-10-10-10-10-10-8-8-8-8-8-8-8-8-8-|
A|11-11-11-11-11-11-11-11-10-10-10-10-10-10-10-10-8-8-8-8-8-8-8-8-8-|
E|9--9--9--9--9--9--9--9--8--8--8--8--8--8--8--8--6-6-6-6-6-6-6-6-6-|


E|-----------------------------------------------------------------| x4
B|-----------------------------------------------------------------|
G|11-11-11-11-10-10-10---------------------------------------------|
D|11-11-11-11-10-10-10---------------------------------------------|
A|9--9--9--9--8--8--8----------------------------------------------|
E|-----------------------------------------------------------------|


Chorus (chords)

Cm  C  Am  Fm  F                                                    x4



Bridge is the same as Verse



Tabbed by Tom (t0mw)
Tap to rate this tab
# A B C D E F G H I J K L M N O P Q R S T U V W X Y Z