Song name
# A B C D E F G H I J K L M N O P Q R S T U V W X Y Z

Frontier Ruckus - June Is Our Mothers Name tab

Band: Frontier Ruckus

Song: June Is Our Mother's Name

Tuning: DADGAD

Capo: 2nd


Intro and Verses:
   
d |----------------------------------------------------------------------------------------0-|
a |----------------------------------------------------------------------------------------0-|
G |-2------2\4-----------------------------------------------------------------------------2-|
D |-----0---------0----2\4----2----2\4----2----2\4----2----2\4----2------------------------2-|
A |--------------------------------------------------------------------5---2---------------0-|
D |-----------------------------------------------------------------------------4---0------0-|
   
   
   


Chorus:

d |---0-------0--------0--------0-------0-------0-------0-------0-------0-------2--|
a |---0-------0--------0--------0-------0-------0-------0-------0-------0-------0--|
G |---2-------0--------2--------0-------2-------0-------2-------0-------2-------2--|
D |---2-------2--------2--------2-------2-------2-------2-------2-------2-------0--|
A |---0-------2--------0--------2-------0-------2-------0-------2-------0-------0--|
D |---0-------0--------0--------0-------0-------0-------0-------0-------0-------0--|




d |-----9----7----5----4----2----0------|
a |-------------------------------------|
G |-------------------------------------|
D |-------------------------------------|     repeat 4 times 
A |-------------------------------------|
D |-------------------------------------|







Lyrics

Verse 1:
People bargin 
They’re calling the good old summer down
They’re gunna have a filthy roll around
June

Birds are speaking
they’re wondering why were singing 
By notes for the air two kiss on a full
Moon

Chorus:
You love your tune and I love my tune
You love my tune and I love your tune
The harmony they croon
All throughout June
Together they bloom 
Something like
It’s a little bit like… this

Verse 2:
Warm sex headaches
Mines back again it’s my only friend
I’m gonna send an old lake bottle to
You

Insects know when 
Yards are bathing like they don’t sleep at night
It will be all right when my farmhouse is with
You

Chorus:
You love your tune and I love my tune
You love my tune and I love your tune
The harmony they croon
All throughout June
Together they bloom 
Something like
It’s a little bit like… this

Verse 3:
Haven’t seen you
In years your fragence is pouring back
With the mugginess of the black
Midnight holiest way to say
June’s is my mother’s name
Too
Tap to rate this tab
# A B C D E F G H I J K L M N O P Q R S T U V W X Y Z