Frontier Ruckus - Orion Town 2 chords

Highlighted       Show chord diagrams
Standard Tuning

Intro:

|-------------------------|
|-------------------------|
|-------------------------|
|-----2-2-----------------|
|-2-2-----2/4-2-----------|
|----------------4-2------|

A

|----0--0----0--0---|
|----2--2----2--2---|
|----2-------2------| x2
|----2-------2------|
|-0--0-------0------|
|---------0---------|




E                                C#m
Smoking Turkish cigarettes in

F#m
The thumb of the midwest when

                             B
The sulfur fills the trees

                          A
On the fourth of July

             B
You and I

C#m               F#m  B       E
We travel the gravel goin' home


Home sweet home, home my brother
Not one mind hones to another
Take these tones, and try to color me
And the liquor lotto store
The bathroom floor
See, we unravel, like travels
Drunk and sore
Tap to rate this tab
 
# A B C D E F G H I J K L M N O P Q R S T U V W X Y Z