Song name
# A B C D E F G H I J K L M N O P Q R S T U V W X Y Z

Frontier Ruckus - Ontario tab

----------------------------------------------------------------------------
Ontario - Frontier Ruckus
----------------------------------------------------------------------------
Tabbed by: 3lacksabbath81
Email: sskinner@wit.edu

Deadmalls & Nightfalls: Track 2

Matthew Milia: songs, voice, guitar, harmonica, pedal steel
David W. Jones: banjo, voice, dobro
Zachary Nichols: brass, singing-saw, melodica, keyboards
Ryan Etzcorn: drums, percussion

Tuning: Standard [Capo 2nd Fret]

Matthew tunes the high e down to a d for this song. Sounds good either way.

Part One: Dark Lands

       I   held    three strands       but  I        lost   one
    Am7                              D
d|-----0---0--0--0----0-----------|-----0---0--0--0-----0---0--0--0---|
B|-----1---1--1--1----1---1--1--1/|-----3---3--3--3-----3---3--3--3---|
G|-----0---0--0--0----0---0--0--0-|-----0---0--0--0-----0---0--0--0---|
D|-----2---2--2--2----2---2--2--2/|-----4---4--4--4-----4---4--4--4---|
A|--0--0-----------0--0-----------|--5--5------------5--5-------------|
E|--------------------------------|-----------------------------------|
       Dark  as    the lands         surr-ounding    Boston
    Am7                              D
d|-----0---0--0--0----0-----------|-----0---0--0--0-----0---0--0--0---|
B|-----1---1--1--1----1---1--1--1/|-----3---3--3--3-----3---3--3--3---|
G|-----0---0--0--0----0---0--0--0-|-----0---0--0--0-----0---0--0--0---|
D|-----2---2--2--2----2---2--2--2/|-----4---4--4--4-----4---4--4--4---|
A|--0--0-----------0--0-----------|--5--5------------5--5-------------|
E|--------------------------------|-----------------------------------|

    On     the     train  that       backscratched the windows  
    C                                D
d|-----0---0--0--0----0-----------|-----0---0--0--0-----0---0--0--0---|
B|-----1---1--1--1----1---1--1--1-|-----3---3--3--3-----3---3--3--3---|
G|-----0---0--0--0----0---0--0--0-|-----0---0--0--0-----0---0--0--0---|
D|-----2---2--2--2----2---2--2--2-|-----4---4--4--4-----4---4--4--4---|
A|--3--3-----------3--3---------3/|--5--5------------5--5-------------|
E|--------------------------------|-----------------------------------|
   The backs of    the houses        pulsing the     rain glows
    C                                D
d|-----0---0--0--0----0-----------|-----0---0--0--0-----0---0--0--0---|
B|-----1---1--1--1----1---1--1--1-|-----3---3--3--3-----3---3--3--3---|
G|-----0---0--0--0----0---0--0--0-|-----0---0--0--0-----0---0--0--0---|
D|-----2---2--2--2----2---2--2--2-|-----4---4--4--4-----4---4--4--4---|
A|--3--3-----------3--3---------3/|--5--5------------5--5-------------|
E|--------------------------------|-----------------------------------|

Part One: (Continued)

Am7              D
That sick man so shiny in his slump
Am7               D
Doubled over like a water pump
C                D
He was dribbling out from his nostrils
C               D
Onto his ankles leaking like Aprils
Am7               D
Yeah the thaw had already begun
Am7                       D
We could hear the earshot from your cabin
C                         D
In the holy boldness your cheeks purpled and pinked
C                          D
There in the coldness with some sort of instinct
Am7             D
Oh the fluency, me with my hands cupped
Am7                    D
Catching currency that you made it erupt
C                           D
The quiet of spilling right after the stilling
C                       D
Why it was chilling our hot windowsilling
Am7                     D
I see your stature when breathing and turning
Am7                       D
Smoking the black blur as if somethings burning
C                       D
Remember the gray-slate coming of some thrill
C                       D
The low sky of too-late up on Bunker Hill

   Bridge

    Oh           Oh      Oh      Oh      
    Em           F#      G       C
d|------0-----------------------------------------------------|
B|------0--0-0-0----------------------1--1-1-1------1--1-1-1--|
G|------0--0-0-0----------------------0--0-0-0------0--0-0-0--|
D|------2--2-2-2--0--0-0--0--0-0------2--2-2-2------2--2-2-2--|
A|------2--2-2-2--0--0-0--0--0-0--3---3--3-3-3--3---3--3-3-3--|
E|---0--0--0-0-0--2--2-2--3--3-3------------------------------|

    Oh           Oh      Oh      Oh      
    Em           F#      G            A                        (Let Ring)
d|------0----------------------------------------------------------0--------|
B|------0--0-0-0----------------------2--2-2-2------2--2-2--0------1--------|
G|------0--0-0-0----------------------2--2-2-2------2--2-2--0------0--------|
D|------2--2-2-2--0--0-0--0--0-0------2--2-2-2------2--2-2--0------2--------|
A|------2--2-2-2--0--0-0--0--0-0--0---0--0-0-0--0---0--0-0--0------3--------|
E|---0--0--0-0-0--2--2-2--3--3-3--------------------------------------------|


Part Two: Will it Leave Me Grinning or Awing?
  
  Riff
d|------------------------|
B|------------------------|
G|--------0---------------|
D|--0h2/4----4\2-----0----|
A|---------------0h2---0--|
E|------------------------|

        Em              D                      Am   (Riff)
And the whirling eddies sprayed off the semis tail
Em          Bm            C         D 
The curling snow-traps of your hair
Em           D                    Am (Riff)
Feeling warm inside the swarms of hail
Em                    Bm            C          D       
The foreign planet of some diner we found there

      Em            D              Am (Riff)
So my brother and I saddle up some horse
    Em             Bm                C       D
And watch the snow thinning with the thawing
Em                D            Am (Riff)
Another will die, rattle me so coarse
Em               Bm          C      D
Will it leave me grinning or awing?
Em               Bm          C      D
Will it leave me grinning or awing?
Em               Bm          C      D
Will it leave me grinning or aw..

Em, Bm, C, D, C, D7

Part Three: In Ontario

  In On-tar-i-o
               Am7
d||------------0---0-0-0-0--0-0-0-0--0-0-0-|
B||------------1---1-1-1-1--1-1-1-1--1-1-1-|
G||------------0---0-0-0-0--0-0-0-0--0-0-0-|
D||-----4-2p0--2---2-2-2-2--2-2-2-2--2-2-2-|
A||---2--------0---------------------------|
E||----------------------------------------|
    On-tar-i-o
    G                                     E
d|---------0---------------------------|-----------------|
B|---------3---3-3-3-3--3-3-3-3--3-3-3-|--0--------------|
G|------0--0---0-0-0-0--0-0-0-0--0-0-0-|--1--3/4--2p0----|
D|----2----0---0-0-0-0--0-0-0-0--0-0-0-|--2-----------0--|
A|--3------2---2-2-2-2--2-2-2-2--2-2-2-|--2--------------|
E|---------3---3-3-3-3--3-3-3-3--3-3-3-|--0--------------|
                                          (Let Ring)
    Am7                C                   D            D7
d|--0--0-0-0-----------------------------------------------------0~----|
B|--1--1-1-1--1---1-0--1--1-1-1-1--1-1-1--1-------3-----------3--3~----|
G|--0--0-0-0--0---0-0--0--0-0-0-0--0-0-0--0-----0---0-------5----5~----|
D|--2--2-2-2--0h2-0-0--2--2-2-2-2--2-2-2--2---4-------4---4------4~----|
A|--0--0-0-0--0--------3--3-3-3-3--3-3-3--3/5-----------5--------5~----|
E|---------------------------------------------------------------------|

  In On-tar-i-o
               Am7
d||------------0---0-0-0-0--0-0-0-0--0-0-0-|
B||------------1---1-1-1-1--1-1-1-1--1-1-1-|
G||------------0---0-0-0-0--0-0-0-0--0-0-0-|
D||-----4-2p0--2---2-2-2-2--2-2-2-2--2-2-2-|
A||---2--------0---------------------------|
E||----------------------------------------|
    On-tar-i-o
    G                                     E              Am            Em
d|---------0---------------------------|----------------|-0--0---0----------|
B|---------3---3-3-3-3--3-3-3-3--3-3-3-|--0-------------|-1--1---1--0--0~---|
G|------0--0---0-0-0-0--0-0-0-0--0-0-0-|--1--3/4--2p0---|-2--2---2--0--0~---|
D|----2----0---0-0-0-0--0-0-0-0--0-0-0-|--2-----------0-|-2--0h2-0--0--2~---|
A|--3------2---2-2-2-2--2-2-2-2--2-2-2-|--2-------------|-0--0---0--0--2~---|
E|---------3---3-3-3-3--3-3-3-3--3-3-3-|--0-------------|--------------0~---|
  

  Sources:
  http://www.frontierruckus.com/connect/topic.php?id=6&page=2
  http://www.youtube.com/watch?v=itk4Tq4_xgA
  http://vimeo.com/33359429


************************************

| /   slide up
| \   slide down
| h   hammer-on
| p   pull-off

************************************
Tap to rate this tab
 
# A B C D E F G H I J K L M N O P Q R S T U V W X Y Z