Song name
# A B C D E F G H I J K L M N O P Q R S T U V W X Y Z

Frontier Ruckus - Nerves Of The Nightmind tab

---------------------------------------------------------------------------
Nerves of the Nightmind - Frontier Ruckus
---------------------------------------------------------------------------
Tabbed by: 3lacksabbath81
Email: sskinner@wit.edu

Deadmalls & Nightfalls: Track 1

Matthew Milia: songs, voice, guitar, harmonica, pedal steel
David W. Jones: banjo, voice, dobro
Zachary Nichols: brass, singing-saw, melodica, keyboards
Ryan Etzcorn: drums, percussion

Tuning: Standard 

"Nerves is in Em which requires a G harp (the relative major.)" - Matthew

Moderately Fast

    Em
e||-------------------------------------------------|
B||--0----------------------------------------------|
G||--0---0-0-0-0--0--0-0-0-0---0--0-0--0--0-0-0-0---|
D||--2---2-2-2-2--2--2-2-2-2---2--2-2--2--2-2-2-2---|
A||--2---2-2-2-2--2--2-2-2-2---2--2-2--2--2-2-2-2---|
E||--0---0-0-0-0--0--0-0-0-0---0--0-0--0--0-0-0-0---|
    F#           G
e|---------------------------|
B|---------------------------|
G|---------------------------|
D|--0--0-0-0-0---0--0-0-0-0--|
A|--0--0-0-0-0---0--0-0-0-0--|
E|--2--2-2-2-2---3--3-3-3-3--|
    C
e|-------------------------------------------------------|
B|--1--1-1-1-1--1---1-1-1-1--1--1-1-1-1--1---1-1-1--1-1--|
G|--0--0-0-0-0--0---0-0-0-0--0--0-0-0-0--0---0-0-0--0-0--|
D|--2--2-2-2-2--0h2-2-2-2-2--2--2-2-2-2--0h2-2-2-0--0-0--|
A|--3--3-3-3-3--3---3-3-3-3--3--3-3-3-3--3---3-3-2--2-2--|
E|-------------------------------------------------------|
    Am7
e|-----------------------------------------------|
B|--1---1-1-1-1--1--1-1-1-1---1--1-1--1--1-1-1-1-|
G|--0---0-0-0-0--0--0-0-0-0---0--0-0--0--0-0-0-0-|
D|--2---2-2-2-2--2--2-2-2-2---2--2-2--2--2-2-2-2-|
A|--0---0-0-0-0--0--0-0-0-0---0--0-0--0--0-0-0-0-|
E|-----------------------------------------------|

e|----------------------------|
B|--1--1-1-1-1---1--1-1-1-1---|
G|--0--0-0-0-0---0--0-0-0-0---|
D|--0--0-0-0-0---0--0-0-0-0---|
A|--2--2-2-2-2---3--3-3-3-3---|
E|----------------------------|
    D
e|-----------------------------------------------||------|
B|--3---3-3-3-3--3--3-3-3-3---3--3-3--3--3-3-3-3-||------|
G|--0---0-0-0-0--0--0-0-0-0---0--0-0--0--0-0-0-0-||------|
D|--4---4-4-4-4--4--4-4-4-4---4--4-4--4--4-4-4-4-||-0----|
A|--5---5-5-5-5--5--5-5-5-5---5--5-5--5--5-5-5-5-||-0----|
E|-----------------------------------------------||-3b---|

All the vegetation in the settled world is stirring
Im blurring into sun-burnt and heartbroken worrying
about how the day took such a long time to die
when it was reeking of women I once had on my side
but now that Ive found another smell to believe in
Im buzzing like hell just to hope I can breathe it
and resurrect the simplistic calm in some eyes
that are trying to find you or bury your night-
Am7                  C
mind and it will take time.

Oh your tongue and the twilight marina
when so young and brave and still dreaming
getting to know you lash by dark lash
the rooms where you sleep in
the floors where you crash

and gas-stations are pleasantly blowing
thunder rolls for dresses youre wearing
on a body so unknowing
of what that blowings for our preparing

and patience is never affording
when prettiness and sweetness are pouring
out from you and
onto me and
dampness of sweat is the sweetest recording

and you can lay with your head on my body
the worlds of the night and disease try to rob me
all the vegetation in the settled world is stirring
but stillness and calmness are all that Im hearing 
Am7                 C
now and it will take time.

Banjo Solo: Em, C, Am7, D (same as verses) x2

    End
e|---------------------|
B|---0---0---3~--------|
G|---0---0---0~--------|
D|---2---2---2~--------|
A|---2---2---2~--------|
E|---0---0---0~--------|

  
  Sources:
  http://www.youtube.com/watch?v=Jdh5UtQnFNE
  http://www.frontierruckus.com/songbook


************************************

| /   slide up
| \   slide down
| h   hammer-on
| p   pull-off
| ~   vibrato
| b   Bend

************************************
Tap to rate this tab
# A B C D E F G H I J K L M N O P Q R S T U V W X Y Z