Song name
# A B C D E F G H I J K L M N O P Q R S T U V W X Y Z

Frontline Attack - Onward To Chaos tab

UPDATE-well ive gotten quite a bit better now so now i have the song in its entirety
this was my first tab

Onward to chaos-Frontline Attack
intro
e----------------|
b----------------|
g-------3-5-7----|
d-----5-3-5-7----|
a-----5-1-3-5----|
E-----3----------|x2 end on 553


verse
e--------------------------|
b--------------------------|
g--------------------------|
d-----5555555555-345-------|
a-----5555555555-345-------|
E-----3333333333-123-------|
------********-------------|
bridge
e--------------------------------|
b--------------------------------|
g----------3---------5555--------|
d-----5----3----3----5555--------|
a-----5----1----3----3333--------|
E-----3---------1----------------|X3
---------------------**----------|
outro
e-------------------------------|
b-------------------------------|
g-------------------------------|
d------o3---4---5--o------------|
a------o3---4---5---------------|
E-------1---2---3---------------|x3
*-Palm mute
Tap to rate this tab
 
# A B C D E F G H I J K L M N O P Q R S T U V W X Y Z