Song name
# A B C D E F G H I J K L M N O P Q R S T U V W X Y Z

Frontside Five - Bleeding The Sound tab

Bleeding The Sound
Written By Frontside Five
Tabbed By Alex B. [aka Powerdusk]
Standard Tuning [E A D G B E]

(for ultimate-guitar verification)
http://www.5corerecords.com/
http://frontsidefive.net/
frontside five is also on iTunes.

Guide:
* - play multiple times (listen to the song for the strumming pattern, it isn't that difficult)
b - Bend
h - Hammer on
p - Pull off
x - String Mute

Sequence:
Intro
Riff
Chorus x2
Verse
Riff
Chorus x2
Verse
Bridge x2
Riff
High Riff
Chorus x2
Outro

This is not in complete order! The time is labeled for the first time you hear the 
only!

(0:00 - 0:05)
Intro
|-------------|
|-------------|
|-------------|
|---8*----9*--|
|---8*----9*--|
|---6*----7*--|

(0:05 - 0:15)
Riff
|-----------------------------------------------------------------------------|
|-----------------------------------------------------------------------------|
|-----------------------------------------------------------------------------|
|-----------------------------------------------------------------------------|
|----------9--9h10p9-12--12-9--9h10p9-------------9--9h10p9-12--12-9--9h10p9--|
|-----7--7---7----------------7--------7-----7--7---7----------------7--------|


----------------------------------------------------------------------------|
----------------------------------------------------------------------------|
----------------------------------------------------------------------------|
----------------------------------------------------------------------------|
----------4--4h5p4-7--7-4--4h5p4----------------4--4h5p4-7--7-4--4h5p4------|
-----2--2---2-------------2------2---------2--2---2-------------2-----------|

(0:15 - 0:36)
Chorus
|---------------------------------------------------------|
|---------------------------------------------------------|
|---------------------------------------------------------|
|---9*---13-12*----9*---13-12*-----4*--8-7*----4*--8-7*---|
|---9*---11-12*----9*---11-12*-----4*--8-7*----4*--8-7*---|
|---7*---11-10*----7*---11-10*-----2*--6-5*----2*--6-5*---|

(0:36 - 0:46)
Bridge
|---------------------------------------------------|
|---------------------------------------------------|
|---------------------------------------------------|
|-----7*--3*--7*----3-4-5-6-7*---3*--7*----3-4-5-6--|
|-----7*--3*--7*----3-4-5-6-7*---3*--7*----3-4-5-6--|
|-----5*--1*--5*----1-2-3-4-5*---1*--5*----1-2-3-4--|

(1:27 - 1:47)
Bridge
|--------------------------------------------------------------|
|--------------------------------------------------------------|
|------444-----0---------------------------444----0------------|
|-----------4-----2--4--b5--4------------------4-----2--4--b5--|
|---2-----------------------------------2----------------------|
|--------------------------------------------------------------|

(1:58 - 2:07)
High Riff
|-------------------------------------------------------------------------------------------|
|-------------------------------------------------------------------------------------------|
|-----------11--11h12p11-14--14-11--11h12p11---------------11--11h12p11-14--14-11--11h12p11-|
|------9--9----9-------------------9---------9--------9--9----9-------------------9---------|
|-------------------------------------------------------------------------------------------|
|-------------------------------------------------------------------------------------------|

---------------------------------------------------------------------------|
---------------------------------------------------------------------------|
-----------6--6h7p6-9--9-6--6h7p6-----------------6--6h7p6-9--9-6--6h7p6---|
------4--4---4-------------4------4----------4--4---4-------------4--------|
---------------------------------------------------------------------------|
---------------------------------------------------------------------------|

(2:28 - end)
Outro
|--------------------------------------------------------------------------|
|--------------------------------------------------------------------------|
|--------------------------------------------------------------------------|
|----9--9-9----x--x-x----9--9-9----x--x-x----9--9-9----x--x-x----9--9-9----|
|----9--9-9----x--x-x----9--9-9----x--x-x----7--7-7----x--x-x----7--7-7----|
|----7--7-7----x--x-x----7--7-7----x--x-x----7--7-7----x--x-x----7--7-7----|

Notes:
on the riff and high riff I personally slide my finger between the hammer on and pull 
instead. I find it a bit easier and produces a better sound, but that is my opinion. I am 
sure that they use hammer ons and pull offs though. Go with what feels best.

Please send me any comments you have. I tabbed this by ear so feel free to correct me.
Tap to rate this tab
# A B C D E F G H I J K L M N O P Q R S T U V W X Y Z