Song name
# A B C D E F G H I J K L M N O P Q R S T U V W X Y Z

Frontside - W Cieniu Krzyza tab

Intro 2x
E|------------------------------------------------------------------------|
B|------0----------0--------0-------0-----------0--------------0----------|
G|----------0---------0-----------------0------------0--------------------|
D|---5---------5---------5------2-----------2------------2----------------|
A|------------------------------------------------------------------------|
E|------------------------------------------------------------------------|

---------------------------------------------------------------------------|
---------0-------------0------------0-------0----------0----------0--------|
-------------0-------------0--------------------0---------0----------------|
---------------------------------------------------------------------------|
-----2------------2------------2--------0----------0----------0------------|
---------------------------------------------------------------------------|

----------------------------------------------------------------------------|
-------0-------------0-----------0---------0-----------0------------0-------|
-----------0-------------0---------------------0-----------0----------------|
----------------------------------------------------------------------------|
----------------------------------------------------------------------------|
--3-------------3------------3--------0------------0-----------0------------|

----------------------------------------|-------------------------------------0-|
-------0------------0----------0--------|-------------------------------------0-|
-----------0------------0-----------2x--|---repeat intro and play in the end: 0-|
----------------------------------------|-------------------------------------2-|
---2------------2----------2------------|-------------------------------------2-|
----------------------------------------|-------------------------------------0-|

Solo during intro
-------------------------------------------------------------------------10----------|
--------------------------------------------------------------7------10------7-------|
--9---7---6---7~----6-7-9---7---6------6---7--9--7---6---7~--------------------------|
------------------------------------9------------------------------------------------|
-------------------------------------------------------------------------------------|
-------------------------------------------------------------------------------------|


-------------------------------------------------------------------------------------|
-------------------------------------------------------------------------------------|
----6-7-9---7---6--7~---6---7--9--7---6---------6-7-9---7---6--7~--------------------|
------------------------------------------9~-----------------------------------------|
-------------------------------------------------------------------------------------|
-------------------------------------------------------------------------------------|
Tap to rate this tab
 
# A B C D E F G H I J K L M N O P Q R S T U V W X Y Z