Song name
# A B C D E F G H I J K L M N O P Q R S T U V W X Y Z

Frost Like Ashes - A Cruel Verse tab

A Cruel Verse by Frost Like Ashes this is only about half the song, we will add more later.
tabbed by soaked in scarlet. www.myspace.com/soakedinscarlet.


b |-------------------------------------3-3-3-3-3------------------------|
f#|-----------------------------2-2-2-2-3-3-3-3-3------------------------|
b |1010101010777776677555777777-4-4-4-4----------------------------------|
e |----------------------------------------------------------------------|
g#|----------------------------------------------------------------------|
c#|----------------------------------------------------------------------|

this part is hard          |-5-5-5-5-4-----------------------------------|
b |0-10-9-10-0-7-6-7       |-5-5-5-5-4~| x2 then repeat the whole verse--| x2
f#|0-10-9-10-0-7-6-7   x4  |---------------------------------------------|
b |-----------------       |---------------------------------------------|
e |-----------------       |---------------------------------------------|
g#|-----------------       |---------------------------------------------|
c#|-----------------       |---------------------------------------------|


b |5-5-5-5-5-5-5-5-5-|
f#|5-5-5-5-5-5-5-5-5-|  for awhile then
b |------------------|
e |------------------|
g#|------------------|
c#|------------------|
                 pm......
b |----------------5-5-5-5-6-6-6-6|
f#|----------------5-5-5-5-6-6-6-6|
b |5-7-8-----5-4-3----------------|
e |------7-5----------------------|
g#|-------------------------------|
c#|-------------------------------|


thats only like half of it, we'll do more later.
you can email us at soaked_in_scarlet@yahoo.com
Tap to rate this tab
 
# A B C D E F G H I J K L M N O P Q R S T U V W X Y Z