Song name
# A B C D E F G H I J K L M N O P Q R S T U V W X Y Z

Frostmoon - Vikingmakt tab

Tabbed by Hyks97 24/4/2013


Artist: Frostmoon
Album: Tordenkrig
Song: Vikingmakt


Tuning: Standard
E, A, D, G, b, e


A:
||------------------------------------------------------------||
||------------------------------------------------------------||
||------------------------------------------------------------||
||------------------------------------------------------------||
||--------------------3"----2"--------------------------------||
||-0"--2"-3"---2"-0"-----3"------5"--0"-3"---2"--3"-2"--0"----||


B:
||-------------------------------------||
||-------------------------------------||
||-------------------------------------||
||------8"--------8"-------------------||
||------8"--------8"---2"--1"--5"--4"--||
||-0"---6"---0"---6"-------------------||


C:
||---------------------------------------------------------||
||---------------------------------------------------------||
||---------------------------------------------------------||
||-------9----9-10--10-9-7---------------7-9---9-7---------||
||-7---7---7---------------10-9---9-9-10-----------10-9-7--||
||---------------------------------------------------------||

cont.
|--------------------------------------||
|--------------------------------------||
|--------------------------------------||
|----------7---7-7---------------------||
|-7-7-9-10---------10-9-7---6---7---9--||
|--------------------------------------||


And that's about it :) Leave a comment if you have any questions :3
Tap to rate this tab
 
# A B C D E F G H I J K L M N O P Q R S T U V W X Y Z