Song name
# A B C D E F G H I J K L M N O P Q R S T U V W X Y Z

Frozen Abyss - The Last Train tab

(They have not an Official Website because it's a new band, from 2009. I'll be 
sending Official MySpace link
(don't know if it's allowed, though)): http://www.myspace.com/frozenabyssgermany

Frozen Abyss (Ger) - The Last Train (Intro)
Tempo ≅ 70
L = tied note

D||--------------------------|-------------------------|
A||--------0-----------3-----|--------0----------0-----|
F||-----0-----0-----0-----0--|-----0-----0----0-----0--|
C||--------------------------|-------------------------|
G||--------------3-----------|-------------------------|
D||--0-----------------------|--3----------------------|

 
--------------------------|-------------------------|--------------------------|
--------0-----------3-----|--------0----------0-----|--------0-----------3-----|
-----0-----0-----0--------|-----0----------0-----0--|-----0-----0-----0-----0--|
--------------------------|-------------------------|--------------------------|
--------------3-----------|-------------------------|--------------3-----------|
--0--------------------3--|--L----------3-----------|--0-----------------------|


-------------------------|--------------------------|-------------------------|
--------0----------0-----|--------0-----------3-----|--------0----------0-----|
-----0-----0----0-----0--|-----0-----0-----0--------|-----0----------0-----0--|
-------------------------|--------------------------|-------------------------|
-------------------------|--------------3-----------|-------------------------|
--3----------------------|--0--------------------3--|--L----------3-----------|


--(7)-----------(5)-----------|--(3)-------------------(3)-(5)-|
----------0-------------3-----|----------0----------0----------|
-------0-----0-------0-----0--|-------0-----0----0-------------|
------------------------------|--------------------------------|
-----------------3------------|--------------------------------|
---0--------------------------|---3----------------------------|


--(7)-----------(5)--------(3)--|-------------------------|
----------0-------------3-------|--------0----------0-----|
-------0-----0-------0----------|-----0----------0-----0--|
--------------------------------|-------------------------|
-----------------3--------------|-------------------------|
---0------------------------3---|--L----------3-----------|


--(7)-----------(5)-----------|--(3)-------------------(3)-(5)-|
----------0-------------3-----|----------0----------0----------|
-------0-----0-------0-----0--|-------0-----0----0-------------|
------------------------------|--------------------------------|
-----------------3------------|--------------------------------|
---0--------------------------|---3----------------------------|

   
--(7)-----------(5)--------(3)--|-------------------------||
----------0-------------3-------|--------0----------0-----||
-------0-----0-------0----------|-----0----------0-----0--||
--------------------------------|-------------------------||
-----------------3--------------|-------------------------||
---0------------------------3---|--L----------3-----------||

Despite it's in D Tuning, I always play it in C Tuning with my Ac Guitar
Tap to rate this tab
# A B C D E F G H I J K L M N O P Q R S T U V W X Y Z