Song name
# A B C D E F G H I J K L M N O P Q R S T U V W X Y Z

Frozen - Do You Want To Build A Snowman tab

Do You Wanna Build A Snowman? - Frozen 
Standard Tuning
Capo 3 
This is my first tab, so apologies in advanced if it's not done well.

I tried to tab as much as I can following this video[not me playing]: 
http://www.youtube.com/watch?v=H1-R6LiQ8Bg 


e---------------------||                          |e---0------|
B-----1-----1---------||                          |B---1------|
G---0-------------0---||                          |G---0-let--|   
D-3-----2-------2-----|| x4  fourth time ending   |D-----ring-|
A---------3-----------||     hammer on            |A---3------|
E---------------------||     sometimes            |E----------|


e-----------0---0-|---------------|---------0---------|---------0-1p0----0-1p0-----------0|
B-1-1-1---1---3---|---------------|-1-1---1---3-------|-1-1---1-------1--------1---1---1--|
G-------0---------|--0------------|-----0-----------0-|-----2------------------------2----|
D-----------------|------2--------|--------------0----|---------------2----------2--------|
A-------------3---|----------3----|-----------2-------|------------0----------------------|
E-----------------|---------------|-------------------|-----------------------------------|

                                              ^                  ^   ^
e---3-------------|---3-3-1p0-1-3-------0---|---------0--5(ring)---0-2--|
B---3-r----3------|-1-------------1-1-3---1-|-3-1-0-1------------1---3--|
G---4-i----4------|-0-------------0---------|-1------------------0---2--|
D---5-n----5------|-3-----------------0-----|-2------------------0------|
A---5-g--5--------|-3-3---------------2---3-|-2----------0--------------|
E---3-------------|-------------1-1---------|---------------------------|

              ^                   ^ ^               ^
e-----------0---0-|-------------0------|---------------|
B-1-1-1---1---3---|-1-1-1-1---1---3-1--|---1---0----1--|
G-------0-----2---|---------2-----2-1--|------------0--|
D-------------0---|---------------0-0--|------------2--|
A-----------------|--------------------|------------3--|
E-----------------|--------------------|---------------|


e---------------------||                          
B-----1-----1---------||                          
G---0-------------0---||                         
D-3-----2-----0h2-----|| x4  G# Gsus4 G# Gsus4    
A---------3-----------||                          
E---------------------|| 


e------------------------||                          
B-----1-----1------------||                         
G---0-------------0---x2-||  F  G# G                               
D-3-----2-----0h2--------||
A---------3--------------||                          
E------------------------||

I don't know how to play the rest, so this is all i have. Enjoy!  
Tap to rate this tab
# A B C D E F G H I J K L M N O P Q R S T U V W X Y Z