Song name
# A B C D E F G H I J K L M N O P Q R S T U V W X Y Z

Fruit Bats - Primitive Man tab

-------------------------------------------------------------------------------
			     PRIMITIVE MAN  FRUIT BATS
-------------------------------------------------------------------------------
Alright, well this tab is strictly what the acoustic guitar plays. 
I'm pretty sure this is right but if you can do better post your version. 
It's quite easy once you get the gist of it, so enjoy!!!

Tuning: Standard

Intro:

e|-----5-5-5-5-----7-7-7-7-----9-9-9-9-9-9-7-7-X-X-----7-7-7-7-----9-9-9-9-|
B|-----7-7-7-7-----7-7-7-7-----7-7-7-7-7-7-7-7-1010----8-8-8-8-----8-8-8-8-|
G|-----7-7-7-7-----7-7-7-7-----7-7-7-7-7-7-7-7-7-7-----9-9-9-9-----9-9-9-9-|
D|-0---0-0-0-0-0---0-0-0-0-0---0-0-0-0-0-0-0-0-0-0-0---0-0-0-0-0---0-0-0-0-|
A|-0-----------0-----------0-----------------------0-----------0-----------|
E|-------------------------------------------------------------------------|

e|-----1010101010109-9-7-7-----3-3-3-3-----5-5-5-5-----6-6-6-6-6-6-5-5-3-3-|
B|-----8-8-8-8-8-8-8-8-8-8-----3-3-3-3-----3-3-3-3-----3-3-3-3-3-3-3-3-3-3-|
G|-----9-9-9-9-9-9-9-9-9-9-----3-3-3-3-----3-3-3-3-----3-3-3-3-3-3-3-3-3-3-|
D|-0---0-0-0-0-0-0-0-0-0-0-0---0-0-0-0-0---0-0-0-0-0---0-0-0-0-0-0-0-0-0-0-|
A|-0-----------------------0-----------0-----------0-----------------------|
E|-------------------------------------------------------------------------|

e|-----------------------------------------2-2-2-2-----2-2-2-2-----5-5-5-5-|
B|-0-0-0-0-0-0-0-0-0-0-0-0-0-0-0-0-0-0-----3-3-3-3-----3-3-3-3-----7-7-7-7-|
G|-2-2-0-0-0-0-0-0-0-0-0-0-0-0-0-0-0-0-----2-2-2-2-----2-2-2-2-----7-7-7-7-|
D|-0-0-0-0-4-4-2-2-4-4-2-2-0-0-0-0-0-0-0---0-0-0-0-0---0-0-0-0-0---0-0-0-0-|
A|---------0-0-0-0-0-0-0-0-0-0-4-4-0-0-0-----------0-----------0-----------|
E|-------------------------------------------------------------------------|

e|-----7-7-7-7-----9-9-9-9-9-9-7-7-X-X-----7-7-7-7-----9-9-9-9-|
B|-----7-7-7-7-----7-7-7-7-7-7-7-7-1010----8-8-8-8-----8-8-8-8-|
G|-----7-7-7-7-----7-7-7-7-7-7-7-7-7-7-----9-9-9-9-----9-9-9-9-|
D|-0---0-0-0-0-0---0-0-0-0-0-0-0-0-0-0-0---0-0-0-0-0---0-0-0-0-|
A|-0-----------0-----------------------0-----------0-----------|
E|-------------------------------------------------------------|

e|-----1010101010109-9-7-7-----3-3-3-3-----5-5-5-5-----6-6-6-6-6-6-5-5-3-3-|
B|-----8-8-8-8-8-8-8-8-8-8-----3-3-3-3-----3-3-3-3-----3-3-3-3-3-3-3-3-3-3-|
G|-----9-9-9-9-9-9-9-9-9-9-----3-3-3-3-----3-3-3-3-----3-3-3-3-3-3-3-3-3-3-|
D|-0---0-0-0-0-0-0-0-0-0-0-0---0-0-0-0-0---0-0-0-0-0---0-0-0-0-0-0-0-0-0-0-|
A|-0-----------------------0-----------0-----------0-----------------------|
E|-------------------------------------------------------------------------|


e|-----------------------------------------2-2-2-2-----2-2-2-2-----2-2-2-2-|
B|-0-0-0-0-0-0-0-0-0-0-0-0-0-0-0-0-0-0-----3-3-3-3-----3-3-3-3-----3-3-3-3-|
G|-2-2-0-0-0-0-0-0-0-0-0-0-0-0-0-0-0-0-----2-2-2-2-----2-2-2-2-----2-2-2-2-|
D|-0-0-0-0-4-4-2-2-4-4-2-2-0-0-0-0-0-0-0---0-0-0-0-0---0-0-0-0-0---0-0-0-0-|
A|---------0-0-0-0-0-0-0-0-0-0-4-4-0-0-0-----------0-----------0-----------|
E|-------------------------------------------------------------------------|

e|-----2-2-2-2-----2-2-2-2-------2-2-2-2-----2-2-2-2-------2-2-2-2-|
B|-----3-3-3-3-----3-3-3-3-------3-3-3-3-----3-3-3-3-------3-3-3-3-|
G|-----2-2-2-2-----2-2-2-2-------2-2-2-2-----2-2-2-2-------2-2-2-2-|
D|-0---0-0-0-0-0---0-0-0-0---0---0-0-0-0-0---0-0-0-0---0---0-0-0-0-|
A|-0-----------0-------------0-----------0---------0---0-----------|
E|-----------------------------------------------------------------|

e|-----2-2-2-2-----2-2-2-2-------2-2-2-2-----2-2-2-2-|
B|-----3-3-3-3-----3-3-3-3-------3-3-3-3-----3-3-3-3-|
G|-----2-2-2-2-----2-2-2-2-------2-2-2-2-----2-2-2-2-|
D|-0---0-0-0-0-0---0-0-0-0---0---0-0-0-0-0---0-0-0-0-|
A|-0-----------0-------------0-----------0-----------|
E|---------------------------------------------------|


X8 Verse:


e|-----5-5-5-5----10101010-----3-3-3-3---2-2-2-2-----2-2-2-2-----2-2-2-2-----2-2-2-2-|
B|-----7-7-7-7----12121212-----3-3-3-3---3-3-3-3-----3-3-3-3-----3-3-3-3-----3-3-3-3-|
G|-----7-7-7-7----12121212-----0-0-0-0---2-2-2-2-----2-2-2-2-----2-2-2-2-----2-2-2-2-|
D|-0---0-0-0-0-0---0-0-0-0-----0-0-0-0-0-0-0-0-0-0---0-0-0-0-0---0-0-0-0-0---0-0-0-0-|
A|-0-----------0-----------2---2-------0---------0-----------0-----------0-----------|
E|-------------------------3---------------------------------------------------------|

Oh, the time that you broke down and told me that one dream
Your eyes a bit misty and so sincere
Where the rivers were veins so relentlessly pumping
And the sky was a monster made out of tears

I recall when you woke up and told me another
Of huge uncontrollable helium hands
And an antelope's heart and a quiver of arrows
were the gifts that you got from the primitive man

Solo:
e|-----2-2-2-2-----2-2-2-2-----2-2-2-2-----2-2-2-2-----0-0-0-0-----0-0-0-0-|
B|-----3-3-3-3-----3-3-3-3-----3-3-3-3-----3-3-3-3-----2-2-2-2-----2-2-2-2-|
G|-----2-2-2-2-----2-2-2-2-----2-2-2-2-----2-2-2-2-----2-2-2-2-----2-2-2-2-|
D|-0---0-0-0-0-0---0-0-0-0-0---0-0-0-0-0---0-0-0-0-2---2-2-2-2-2---2-2-2-2-|
A|-0-----------0-----------0-----------0-----------0-----------0-----------|
E|-------------------------------------------------------------------------|
e|-----0-0-0-0-----0-0-0-0-----3-3-3-3-----3-3-3-3-----3-3-3-3-----3-3-3-3-|
B|-----2-2-2-2-----2-2-2-2-----3-3-3-3-----3-3-3-3-----3-3-3-3-----3-3-3-3-|
G|-----2-2-2-2-----2-2-2-2-----0-0-0-0-----0-0-0-0-----0-0-0-0-----0-0-0-0-|
D|-2---2-2-2-2-2---2-2-2-2-----0-0-0-0-----0-0-0-0-----0-0-0-0-----0-0-0-0-|
A|-0-----------0-----------2-----------2-----------2-----------2-----------|
E|-------------------------3-----------3-----------3-----------3-----------|
e|-----0-0-0-0-----0-0-0-0-----0-0-0-0-----0-0-0-0-----3-3-3-3-----3-3-3-3-|
B|-----2-2-2-2-----2-2-2-2-----2-2-2-2-----2-2-2-2-----3-3-3-3-----3-3-3-3-|
G|-----2-2-2-2-----2-2-2-2-----2-2-2-2-----2-2-2-2-----0-0-0-0-----0-0-0-0-|
D|-2---2-2-2-2-2---2-2-2-2-2---2-2-2-2-2---2-2-2-2-----0-0-0-0-----0-0-0-0-|
A|-0-----------------------0-----------0-----------2-----------2-----------|
E|-------------------------------------------------3-----------3-----------|
e|-----3-3-3-3-----3-3-3-3-----0-0-0-0-----0-0-0-0-----0-0-0-0-----0-0-0-0-|
B|-----3-3-3-3-----3-3-3-3-----2-2-2-2-----2-2-2-2-----2-2-2-2-----2-2-2-2-|
G|-----0-0-0-0-----0-0-0-0-----2-2-2-2-----2-2-2-2-----2-2-2-2-----2-2-2-2-|
D|-----0-0-0-0-----0-0-0-0-2---2-2-2-2-2---2-2-2-2-2---2-2-2-2-2---2-2-2-2-|
A|-2-----------2-----------0-----------0-----------0-----------0-----------|
E|-3-----------3-----------------------------------------------------------|
e|-----3-3-3-3-----3-3-3-3-----3-3-3-3-----3-3-3-3-----0-0-0-0-----0-0-0-0-|
B|-----3-3-3-3-----3-3-3-3-----3-3-3-3-----3-3-3-3-----2-2-2-2-----2-2-2-2-|
G|-----0-0-0-0-----0-0-0-0-----0-0-0-0-----0-0-0-0-----2-2-2-2-----2-2-2-2-|
D|-----0-0-0-0-----0-0-0-0-----0-0-0-0-----0-0-0-0-2---2-2-2-2-2---2-2-2-2-|
A|-2-----------2-----------2-----------2-----------0-----------0-----------|
E|-3-----------3-----------3-----------3-----------------------------------|
e|-----0-0-0-0-----0-0-0-0-----3-3-3-3-----3-3-3-3-----3-3-3-3-----3-3-3-3-|
B|-----2-2-2-2-----2-2-2-2-----3-3-3-3-----3-3-3-3-----3-3-3-3-----3-3-3-3-|
G|-----2-2-2-2-----2-2-2-2-----0-0-0-0-----0-0-0-0-----0-0-0-0-----0-0-0-0-|
D|-2---2-2-2-2-2---2-2-2-2-----0-0-0-0-----0-0-0-0-----0-0-0-0-----0-0-0-0-|
A|-0-----------0-----------2-----------2-----------2-----------2-----------|
E|-------------------------3-----------3-----------3-----------3-----------|

X5 Verse:
e|-----5-5-5-5----10101010-----3-3-3-3---2-2-2-2-----2-2-2-2-----2-2-2-2-----2-2-2-2-|
B|-----7-7-7-7----12121212-----3-3-3-3---3-3-3-3-----3-3-3-3-----3-3-3-3-----3-3-3-3-|
G|-----7-7-7-7----12121212-----0-0-0-0---2-2-2-2-----2-2-2-2-----2-2-2-2-----2-2-2-2-|
D|-0---0-0-0-0-0---0-0-0-0-----0-0-0-0-0-0-0-0-0-0---0-0-0-0-0---0-0-0-0-0---0-0-0-0-|
A|-0-----------0-----------2---2-------0---------0-----------0-----------0-----------|
E|-------------------------3---------------------------------------------------------|

Or the time you were screaming and sweating and crying
Dreaming of a ride in a leaky raft
Down the rivers, the veins so relentlessly pumping
Deep into the heart of the primitive man

Outro: 
e|-----5-5-5-5-----7-7-7-7-----9-9-9-9-9-9-7-7-X-X-----7-7-7-7-----9-9-9-9-|
B|-----7-7-7-7-----7-7-7-7-----7-7-7-7-7-7-7-7-1010----8-8-8-8-----8-8-8-8-|
G|-----7-7-7-7-----7-7-7-7-----7-7-7-7-7-7-7-7-7-7-----9-9-9-9-----9-9-9-9-|
D|-0---0-0-0-0-0---0-0-0-0-0---0-0-0-0-0-0-0-0-0-0-0---0-0-0-0-0---0-0-0-0-|
A|-0-----------0-----------0-----------------------0-----------0-----------|
E|-------------------------------------------------------------------------|

e|-----1010101010109-9-7-7-----3-3-3-3-----5-5-5-5-----6-6-6-6-6-6-5-5-3-3-|
B|-----8-8-8-8-8-8-8-8-8-8-----3-3-3-3-----3-3-3-3-----3-3-3-3-3-3-3-3-3-3-|
G|-----9-9-9-9-9-9-9-9-9-9-----3-3-3-3-----3-3-3-3-----3-3-3-3-3-3-3-3-3-3-|
D|-0---0-0-0-0-0-0-0-0-0-0-0---0-0-0-0-0---0-0-0-0-0---0-0-0-0-0-0-0-0-0-0-|
A|-0-----------------------0-----------0-----------0-----------------------|
E|-------------------------------------------------------------------------|

e|---------------------------------------------------------------------------|
B|-0-0-0-0-0-0-0-0-0-0-0-0-0-0-0-0-0-0-0-0-0-0-0-0-0-0-0-0-0-0-0-0-0-0-0-0-0-|
G|-2-2-0-0-0-0-0-0-0-0-0-0-0-0-0-0-0-0-2-2-0-0-0-0-0-0-0-0-0-0-0-0-0-0-0-0-0-|
D|-0-0-0-0-4-4-2-2-4-4-2-2-0-0-0-0-0-0-0-0-0-0-0-4-4-2-2-4-4-2-2-0-0-0-0-0-0-|
A|---------0-0-0-0-0-0-0-0-0-0-4-4-0-0-----------0-0-0-0-0-0-0-0-0-0-4-4-0-0-|
E|---------------------------------------------------------------------------|

"One two three stop"
Tap to rate this tab
# A B C D E F G H I J K L M N O P Q R S T U V W X Y Z