Song name
# A B C D E F G H I J K L M N O P Q R S T U V W X Y Z

Fruit Bats - Picture Of A Bird tab

Artist: Fruit Bats
Song: Picture of a Bird
Album: Tripper (2011)

Capo 5th fret

DADGBE

Any chords with an S under them, just strum for a little while


|-----2----2-0h2p0------------|
|-----3----3-3-----3-2-3-3----|
|-----2----2-2-----2-2---2----|
|-----0----0-0-------2---0----|
|-0---0--0-----------0--------|
|-0-0-0--0--------------------|


|----------------------------------------------------------------|
|-----3--3--------------------0--0-0h2-2--0----------------------|
|-2h4----2h4-2----------------0--0-0---0--0----------------------|
|---------------4S2-0--------------------------5-3--3-3-3-5-3----|
|------------------------5----5--5-5---5--5----5-3--3-3-3-5-3--0-|
|------------------------5--5-5--5-5---5--5----5-3--3-3-3-5-3--0-|
                              S           S                    Back to beginning
Tap to rate this tab
# A B C D E F G H I J K L M N O P Q R S T U V W X Y Z