Song name
# A B C D E F G H I J K L M N O P Q R S T U V W X Y Z

Fruit Chest - Putih Abu Cinta Pertama tab

Fruit Chest Putih Abu Cinta Pertama

Intro (Full Speed) :

E|--------------------------------------------------------------------------------------------|
B|--------------------------------------------------------------------------------------------|
G|--------------------------------------------------------------------------------------------|
D|--------2--3--5--3--2-----------------------------------------------------------------------|
A|--3--3-----------------------2--3--5--3--2--------4--5--7--5--4--------3--------5--3--2--3--|
E|-----------------------3--3-----------------5--5-----------------1--1-----3--3--------------|

Ulangi 3x , Lanjutkan Dengan ini (Solo 1:54)


E|-----------------------------------------------------------------------|
B|-----------------------------------------------------------------------|
G|-----------------------------------------------------------------------|
D|-----5--3--2-----5--3--2--0--5--3--2--3--5--3--2--3--5--3--2--3--2-----|
A|--3-----------3-----------------------------------------------------3--|
E|-----------------------------------------------------------------------|

Maaf Kalau Ada Kurang Pas , Salam Rockers! Note : Sesuaikan Dengan Musik
Tap to rate this tab
# A B C D E F G H I J K L M N O P Q R S T U V W X Y Z