Song name
# A B C D E F G H I J K L M N O P Q R S T U V W X Y Z

Frusciante John - I Will Always Be Beat Down tab

Intro/verses                                                        
E|-----------5--------------|-----------3---------------|
B|--------5--------------5--|--------3------------------|
G|-----5--------------4-----|-----4------------------7--|
D|--7--------------5--------|--5------------------7-----|
A|--------------7-----------|------------------9--------|
E|--------------------------|--------------10-----------|

Chorus                                                              
E|------------10-----------------|--------------12-----------7--|
B|--------10-----------------10--|----------13------------8-----|
G|-----9-----------------10------|------12-------------7--------|
D|--7----------------10----------|--10--------------5-----------|
A|----------------8--------------|------------------------------|
E|-------------------------------|------------------------------|

2nd guitar on chorus
                                                                  
E|--12----------------------------|--------------12------------------|
B|------15--13--15--13--------13--|------13--13------15--13--12--13--|
G|------------------------14------|--14------------------------------|
D|--------------------------------|----------------------------------|
A|--------------------------------|----------------------------------|
E|--------------------------------|----------------------------------|

Outro
                                                      
E||-----------5--------------|-----------3--------------|
B||--------5--------------5--|--------3-----------------|
G||-----5--------------4-----|-----4--------7-----7-----|
D||--7--------------5--------|--5-----------7-----7-----|
A||--------------7-----------|--------------9-----9-----|
E||--------------------------|--------------10----10----|


                                                    
-----------5--------------|-----------3------------|
--------5--------------5--|--------3---------------|
-----5--------------4-----|-----4--------7---------|
--7--------------5--------|--5-----------7---------|
--------------7-----------|--------------9---------|
--------------------------|--------------10--------|
                                                       x2
                                                      
End on
                     
--5----------------|
--5----------------|
--5----------------|
--7----------------|
-------------------|
-------------------|

Tap to rate this tab
# A B C D E F G H I J K L M N O P Q R S T U V W X Y Z