Song name
# A B C D E F G H I J K L M N O P Q R S T U V W X Y Z

Frusciante John - How High? tab

#----------------------------------PLEASE NOTE--------------------------------#
#This file is the author's own work and represents their interpretation of the#
#song. You may only use this file for private study, scholarship, or research.#
#-----------------------------------------------------------------------------#
#-- File created with Instab - http://www.pconline.com/~smcarey/instab.html --#
#-----------------------------------------------------------------------------#

Author/Artist: John Frusciante
Title: How High
Transcribed by: Itay Auerbach
Email: itay7@newmail.net



verse:

-----2---|-----5---|----------------------------------------------------------
-----3---|-----5---|----------------------------------------------------------
---4---4-|---------|----------------------------------------------------------
---------|-4-----4-|----------------------------------------------------------
-2-------|---4-----|----------------------------------------------------------
---------|---------|----------------------------------------------------------
          
                                                                    
chorus:

----------|---------|---------|---------|-------------------------------------
------6---|-----5---|-----8---|-----3---|-------------------------------------
------7---|-----6---|-----9---|-----4---|-------------------------------------
----7---7-|---------|---9---9-|---------|-------------------------------------
--5-------|---7---7-|-7-------|---5---5-|-------------------------------------
----------|-5-------|---------|-3-------|-------------------------------------
Tap to rate this tab
# A B C D E F G H I J K L M N O P Q R S T U V W X Y Z