Song name
# A B C D E F G H I J K L M N O P Q R S T U V W X Y Z

Frusciante John - Cut Myself Out tab

-------------------------------------------------------------------------------
		John Frusciante-- Cut myself out
-------------------------------------------------------------------------------
Tabbed by:frusciante_5
Email:funky_monks_12@hotmail.com

Tuning: standard


VERSE - repeat til chorus

e|--------7------------------------|
B|--------7---------9--------------|
G|------------------9--------------|
D|-------------0-------------------|
A|---9-----------------------------|
E|---------------------------------|

CHORUS - repeat through chorus

e|----------------9----------------------------------------------------------|
B|-------9--------9----------------------------------------------------------|
G|-------9-------------------------------------------------------------------|
D|-------------0-------------------------------------------------------------|
A|---0-----------------------------------------------------------------------|
E|---------------------------------------------------------------------------|


Solo variation ( x 2)

e|-------------------9-------------------------------------------------------|
B|-------10----------9-------------------------------------------------------|
G|--------9------------------------------------------------------------------|
D|--------------0------------------------------------------------------------|
A|--9------------------------------------------------------------------------|
E|---------------------------------------------------------------------------|


(back to verse and then chorus.)

(ending variation)  (end on the f#)

e|-------------------14---------------14------------------------------------|
B|-------9------------------9-----------------------------------------------|
G|-------9------------------9-----------------------------------------------|
D|-------------0------------------0-----------------------------------------|
A|---9-------------------9---------------------9----------------------------|
E|--------------------------------------------------------------------------|
Tap to rate this tab
# A B C D E F G H I J K L M N O P Q R S T U V W X Y Z