Song name
# A B C D E F G H I J K L M N O P Q R S T U V W X Y Z

Frusciante John - Untitled #9 tab

John Frusciante - TRACK 21 (untitled #9)

Tablature by Paul Caspers

============================

Note: If you can't play as fast as John, a capo behind your first fret and some alternative
positions should do the trick.

|------h---------11\-(8)---8-----4--6h8-6------------------------14===----|
|-----6-4-6--------------------------------6=--7-----/11-----/11----------|
|------------------------------------------6=----6/8-----8=---------------|
|-------------------------------------------------------------------------|
|-----------/8-------------------------------------------6=---------------|
|-1-1----------9--------6-----2-----6------6=--7--------------------------|


|-----11-11--10-11--11-11--11-|-----4----------11-11--11-11--10-11--11--11-|
|-11=----11--10-11--11-11--11-|---6-------4==-----11--11-11--10-11--11--11-|
|-----------------------------|-6-------4----------------------------------|
|-----------------------------|-------6------------------------------------|
|-----------------------------|--------------------------------------------|
|-----------------------------|--------------------------------------------|

|-----4-------------------------------------------------------------------|
|---6-------4==-----4===--------------------------------------------------|
|-6-------4-----6==-4===--------------------------------------------------|
|-------6-------6==-6===--------------------------------------------------|
|---------------4==-6===--------------------------------------------------|
|-------------------4===--------------------------------------------------|

============================
Tap to rate this tab
# A B C D E F G H I J K L M N O P Q R S T U V W X Y Z