Song name
# A B C D E F G H I J K L M N O P Q R S T U V W X Y Z

Frusciante John - Leaving You tab

Title: Leaving You
Band: Session Road
Tabbed By: Leadiztah_Geo…Heide
Contact: 09213892108
Hi Guyz…. I’m Geo Gacad.... sana maguztuhan nyo po tong tab ko,, paki-rate po.. it
lika accurate.. I dedicate this tab to the girl I love and my inspiration.. Heide
I love you so much Bhaby.. guyz just get the right timing and right strumming.. Makukuha 
agad ton kanta..  More power on my Band named  “Coming Soon”.. Salamat POwhh.. You can 
Me …
natin bandera ng mga ILOCANO…. I want to greet my bandm8s Ron Rosete, Don Rivera and 
Brend Munoz…….

Intro:
Guitar 1: 
(riff 1)
e ----------------------------------------------------|
B-----------------------------------------------------|
G---999999-8-99-----------999999999-------------------|
D---999999-9-99---7x------999999999-------------------|
A---777777-7-77-----------777777777-------------------|
E-----------------------------------------------------|
(riff 2)
e ----------------------------------------------------|
B-----------------------------------------------------|
G-----------------------------------------------------|
D---2--------4---------6---------7---------2----------|
A---2--8(x)--4--8(x)---6--8(x)---7--8(x)---2----------|
E---0--------2---------4---------5---------0----------|

Guitar 2: (Distortion)
Papasok ang Lead Part after 4x ng Riff 1
e --------------------------------|
B---555555-4 55---4(x)------------|
G---------------------------------|
D---------------------------------|
A---------------------------------|
E---------------------------------|
Pasok agad pag play na ung Riff 2
e --------------------------------55555555---------------------------|
B---55555555-77777777-99999999----------------5----------------------|
G--------------------------------------------------------------------|
D--------------------------------------------------------------------|
A--------------------------------------------------------------------|
E--------------------------------------------------------------------|

Verse:
Guitar 1 & Guitar 2:
Pakinggan lang ninyo strumming… Madali lang.
e ------0------------0-------------------|
B-------0------------0-------------------|
G-------1------------2-------------------|
D-------2------------2-------------------|
A-------2------------0-------------------|
E-------0--------------------------------|

Chorus:
Pakinggan lang ninyo strumming… Madali lang.. 4x lang Guitar 1.. Guitar 2 feel the Lead 
Lang Guitar 1..
Pwede rin ninyong gamitin ung simpleng chords…
Guitar 1: (Power Chords, Clean Lang)
e --------------------------------------------------------|
B---------------------------------------------------------|
G---------------------------------------------------------|
D-------2---------4---------6---------7-------------------|
A-------2---------4---------6---------7-------------------|
E-------0---------2---------4---------5-------------------|
Guitar 2: (Distortion)

e --------------------------------------------------------|
B---55555555-4-5555555------------------------------------|
G----------------------44444444-3-4444444-----------------|
D---------------------------------------------------------|
A---------------------------------------------------------|
E---------------------------------------------------------|

e --------------------------------------------------------|
B---55555555-4-5555555------------------------------------|
G----------------------44444444-3-4444444-----------------|
D---------------------------------------------------------|
A---------------------------------------------------------|
E---------------------------------------------------------|

e -----------------------------55555555------------------------------|
B---55555555-77777777-99999999---------------------------------------|
G--------------------------------------------------------------------|  2(X)
D--------------------------------------------------------------------|
A--------------------------------------------------------------------|
E--------------------------------------------------------------------|

Repeat: Verse and Chorus

Adlib:
Adlib chords: E-F#m-G#m-A 4x (Clean Lang) Pakinggan rin nyo Strumming..
Adlib Lead Part: (Distortion)Papasok pag na play na ng 2x ung Adlib Chords

e -----------------------------------------------|
B------------------------9-10-10/12p10p9---------|
G---9-13-13/14p13------9-------------------------|
D------------------------------------------------|
A------------------------------------------------|
E------------------------------------------------|

e -----------------------------------------------|
B------------------------9-10-10/12p10p9b--------|
G---9-13-13/14p13------9-------------------------|
D------------------------------------------------|
A------------------------------------------------|
E------------------------------------------------|

e -----------------------------------------------|
B-----9-10-9-10/12p10p9--------------------------|
G---9--------------------------------------------| 3(x)
D------------------------------------------------|
A------------------------------------------------|
E------------------------------------------------|
 
e -----------------------------------------------|
B-----9-10-9-10/12p10p9b-------------------------|
G---9--------------------------------------------| 
D------------------------------------------------|
A------------------------------------------------|
E------------------------------------------------|

Repeat Chorus: Guitar 1 Only (2x)(Slight Strum Lang)

Outro: (2x)
Guitar 1:
e --------------------------------------------------------|
B---------------------------------------------------------|
G---------------------------------------------------------|
D-------2---------4---------6---------7-------------------|
A-------2---------4---------6---------7-------------------|
E-------0---------2---------4---------5-------------------|

Guitar 2: (Distortion)

e --------------------------------------------------------|
B---55555555-4-5555555------------------------------------|
G----------------------44444444-3-4444444-----------------|
D---------------------------------------------------------|
A---------------------------------------------------------|
E---------------------------------------------------------|

e --------------------------------------------------------|
B---55555555-4-5555555------------------------------------|
G----------------------44444444-3-4444444-----------------|
D---------------------------------------------------------|
A---------------------------------------------------------|
E---------------------------------------------------------|

e -----------------------------55555555------------------------------|
B---55555555-77777777-99999999---------------------------------------|
G--------------------------------------------------------------------|  2(X)
D--------------------------------------------------------------------|
A--------------------------------------------------------------------|
E--------------------------------------------------------------------|
Tap to rate this tab
# A B C D E F G H I J K L M N O P Q R S T U V W X Y Z