Song name
# A B C D E F G H I J K L M N O P Q R S T U V W X Y Z

Frusciante John - Lou Bergs/penetrate Time tab

 =-----------=
   - Lou Bergs -
   =-----------=
by John Frusciante
from "Internet Album (not yet titled)"

Tabbed by Itay Auerbach

=0:00=
Riff A.1                    A.2
E||----5-------------------|----5---------------------|
B||--------------5----5h7--|--------------5------5h7--|
G||---------6--------------|---------6----------------|
D||--4----4----------------|--4----4------------------|
A||-----------4-----4------|-----------4-----4/5------|
E||------------------------|--------------------------|

=0:24=
Chords: A - Bm - C#m - D

-=-=-

=0:34=
Repeat Riff A 

-=-=-

=1:03=
Chords: A - Bm - C#m - D 

=1:10=
Chords:
F# - A5
F# - A5
C#m - A5
F#  - A5
C#m - A5
F#  - A5
C#m - A5

=1:55=
Chords: Bm - C#m - D

-=-=-

=2:01=
Riff B.1                    B.2
|----5---------------------|---------------9-----5h7--|
|--------------5------5h7--|--------------------------|
|---------6----------------|----6---------------------|
|--4----4------------------|---------7----------------|
|-----------4-----4/5------|------------7----7\5------|
|--------------------------|--5----5------------------|

riff B.1
Chords: A - E - D

=2:12=
Riff C.1                    C.2
|----5---------------------|--------------------------|
|--------------5------5h7--|---------------9------7---|
|---------6----------------|----6----6----------------|
|--4----4------------------|--------------------------|
|-----------4-----4/5------|------------7----7\5------|
|--------------------------|--5----5------------------|

repeat riff B
repeat riff B.1

-=-=-

=2:26=
Chords: A5 - Bm - C#m - D - A5 

END.
Tap to rate this tab
# A B C D E F G H I J K L M N O P Q R S T U V W X Y Z