Song name
# A B C D E F G H I J K L M N O P Q R S T U V W X Y Z

Frying Rats - Eczema tab

"Eczema"-The Frying Rats

w/ Phaser

e|---------------------------------------|
B|---------------------------------------|
G|---5-----6-----------------------------|
D|---5-----6-------------6-4-5-3---------|
A|---3-----4-------------6-4-5-3---------|
E|-0----0----0--0--2~~~--4-2-3-1---------|

e|---------------------------------------|
B|---------------------------------------|
G|----x-----------x----------------------|
D|----x--5--------x--7~~~--x-x-x---x-----|
A|----x--5--------x--7~~~--x-x-x---x-----|
E|-0-0---3----0-0----5~~~--x-x-x---x-----|

Just play the first riff & then the second riff.  Do that 10 times.
Tap to rate this tab
# A B C D E F G H I J K L M N O P Q R S T U V W X Y Z