Guitaretab - guitar tabs
Song name
# A B C D E F G H I J K L M N O P Q R S T U V W X Y Z
Home / F / Fs Blumm / Tuch tab

Fs Blumm - Tuch tab

-------------------------------------------------------------------------------
                 Tuch - F.S. Blumm
-------------------------------------------------------------------------------
Tabbed by: Fred Hatfull
Email: fred.hatfull@gmail.com

Tuning: Drop-D (DADGBe)

(0:00)
   D                               D
e|---------------------------------------------------------------------------|
B|---------------------------------------------------------------------------|
G|---------------------------------------------------------------------------|
D|---------2/4---------2h4-----------------2-/-4-----------------------------|
A|-----0-------4-----------4---0-------0-------------------------------------|
D|-0-------------------------------0-----------------------------------------|

   D                               D
e|---------------------------------------------------------------------------|
B|---------------------------------------------------------------------------|
G|---------------------------------------------------------------------------|
D|---------2/4---------2h4-----------------2-/-4-----------------------------|
A|-----0-------4-----------4---0-------0-------------------------------------|
D|-0-------------------------------0-----------------------------------------|

   G                       G
e|---------------------------------------------------------------------------|
B|---------------------------------------------------------------------------|
G|---------------------------------------------------------------------------|
D|---------2h5---------------------2h5---------------------------------------|
A|-----2-----------4---0-------2-----------4---0-----------------------------|
D|-5-----------------------5-------------------------------------------------|

   G                       G
e|---------------------------------------------------------------------------|
B|---------------------------------------------------------------------------|
G|---------------------------------------------------------------------------|
D|---------2h5---------------------2h5---------------------------------------|
A|-----2-----------4---0-------2-----------4---0-----------------------------|
D|-5-----------------------5-------------------------------------------------|

   D                               D
e|---------------------------------------------------------------------------|
B|---------------------------------------------------------------------------|
G|-------------------------------------2-------------------------------------|
D|---------2/4~~~~~--------------------4-------------------------------------|
A|-----0-------------------------------0-------------------------------------|
D|-0-------------------------------0-----------------------------------------|

(0:47)
   G                       G
e|---------------------------------------------------------------------------|
B|---------------------------------------------------------------------------|
G|---------0h2---------------------0h2---------------------------------------|
D|-----0-----------------------0---------------------------------------------|
A|-----------------4---0-------------------4---0-----------------------------|
D|-5-----------------------5-------------------------------------------------|

   G                       G
e|---------------------------------------------------------------------------|
B|---------------------------------------------------------------------------|
G|---------0h2---------------------0h2---------------------------------------|
D|-----0-----------------------0---------------------------------------------|
A|-----------------4---0-------------------4---0-----------------------------|
D|-5-----------------------5-------------------------------------------------|

   G                       G
e|---------------------------------------------------------------------------|
B|---------------------------------------------------------------------------|
G|---------0h2---------------------0h2---------------------------------------|
D|-----0-----------------------0---------------------------------------------|
A|-----------------4---0-------------------4---0-----------------------------|
D|-5-----------------------5-------------------------------------------------|

   G                       G
e|---------------------------------------------------------------------------|
B|---------------------------------------------------------------------------|
G|---------0h2---------------------0h2---------------------------------------|
D|-----0-----------------------0---------------------------------------------|
A|-----------------4---0-------------------4---0-----------------------------|
D|-5-----------------------5-------------------------------------------------|

(1:12)
   Dmaj7                           G
e|---------------------------------------------------------------------------|
B|-----------------------------------------3---------------------------------|
G|---------6-------------------------4---------4-----------------------------|
D|---------7-------------------------5---------------------------------------|
A|---------5-----------------------5-----------------------------------------|
D|-0-------------------------------------------------------------------------|

   Dmaj7                           G
e|---------------------------------------------------------------------------|
B|-----------------------------------------3---------------------------------|
G|---------6---------------------------4-------4-----------------------------|
D|---------7-------------------------5---------------------------------------|
A|---------5-----------------------5-----------------------------------------|
D|-0-------------------------------------------------------------------------|

   Dmaj7                           G
e|---------------------------------------------------------------------------|
B|-----------------------------------------3---------------------------------|
G|---------6---------------------------4-------4-----------------------------|
D|---------7-------------------------5---------------------------------------|
A|---------5-----------------------5-----------------------------------------|
D|-0-------------------------------------------------------------------------|

   Dmaj7                           G
e|---------------------------------------------------------------------------|
B|-----------------------------------------3---------------------------------|
G|---------6---------------------------4-------4-----------------------------|
D|---------7-------------------------5---------------------------------------|
A|---------5-----------------------5-----------------------------------------|
D|-0-------------------------------------------------------------------------|

   Em
e|-----------------0---------------------------------------------------------|
B|------------------------0-------0/2----------------------------------------|
G|-0-------------------------------------------------------------------------|
D|-2-------------------------------------------------------------------------|
A|-0-------------------------------------------------------------------------|
D|-2-------------------------------------------------------------------------|

   Em
e|-----------------0---------------------------------------------------------|
B|------------------------0-------0/2----------------------------------------|
G|-0-------------------------------------------------------------------------|
D|-2-------------------------------------------------------------------------|
A|-0-------------------------------------------------------------------------|
D|-2-------------------------------------------------------------------------|

   Em
e|-----------------0---------------------------------------------------------|
B|------------------------0-------0/2----------------------------------------|
G|-0-------------------------------------------------------------------------|
D|-2-------------------------------------------------------------------------|
A|-0-------------------------------------------------------------------------|
D|-2-------------------------------------------------------------------------|

   Em
e|-----------------0---------------------------------------------------------|
B|------------------------0-------0/2----------------------------------------|
G|-0-------------------------------------------------------------------------|
D|-2-------------------------------------------------------------------------|
A|-0-------------------------------------------------------------------------|
D|-2-------------------------------------------------------------------------|

   D
e|---------------------------------------------------------------------------|
B|-------------5---3--------------------------5---3---2----------------------|
G|-0h2----------------------------0h2----------------------------------------|
D|---------------------------------------------------------------------------|
A|---------------------------------------------------------------------------|
D|---------0------------------------------0----------------------------------|
[ Tab from: http://www.guitaretab.com/f/fs-blumm/315211.html ]
   D
e|---------------------------------------------------------------------------|
B|-------------5---3--------------------------5---3---2----------------------|
G|-0h2----------------------------0h2----------------------------------------|
D|---------------------------------------------------------------------------|
A|---------------------------------------------------------------------------|
D|---------0------------------------------0----------------------------------|

   D
e|---------------------------------------------------------------------------|
B|-------------5---3--------------------------5---3---2----------------------|
G|-0h2----------------------------0h2----------------------------------------|
D|---------------------------------------------------------------------------|
A|---------------------------------------------------------------------------|
D|---------0------------------------------0----------------------------------|

   D                                                      Cmaj7
e|---------------------------------------------------------------------------|
B|-------------5---3--------------------------5---3---2----------------------|
G|-0h2----------------------------0h2---------------------4------------------|
D|--------------------------------------------------------5------------------|
A|--------------------------------------------------------3------------------|
D|---------0------------------------------0----------------------------------|

   Dmaj7           Cmaj7
e|---------------------------------------------------------------------------|
B|---------------------------------------------------------------------------|
G|-----6-----------4---------------------------------------------------------|
D|---------7-------5---------------------------------------------------------|
A|/5---------------3---------------------------------------------------------|
D|-0-------------------------------------------------------------------------|

   Dmaj7           Cmaj7
e|---------------------------------------------------------------------------|
B|---------------------------------------------------------------------------|
G|-----6-----------4---------------------------------------------------------|
D|---------7-------5---------------------------------------------------------|
A|/5---------------3---------------------------------------------------------|
D|-0-------------------------------------------------------------------------|

   Dmaj7           Cmaj7
e|---------------------------------3-----------------------------------------|
B|----------------------------------------3----------------------------------|
G|-----6-----------4---------------------------------------------------------|
D|---------7-------5---------------------------------------------------------|
A|/5---------------3---------------------------------------------------------|
D|-0-------------------------------------------------------------------------|

   Dmaj7           Cmaj7
e|---------------------------------7-----------------------------------------|
B|----------------------------------------7---8---10-------------------------|
G|-----6-----------4---------------------------------------------------------|
D|---------7-------5---------------------------------------------------------|
A|/5---------------3---------------------------------------------------------|
D|-0-------------------------------------------------------------------------|

(2:46)
   G                       G
e|---------------------------------------------------------------------------|
B|---------------------------------------------------------------------------|
G|---------------------------------------------------------------------------|
D|---------2h5---------------------2h5---------------------------------------|
A|-----2-----------4---0-------2-----------4---0-----------------------------|
D|-5-----------------------5-------------------------------------------------|

   G                       G
e|---------------------------------------------------------------------------|
B|---------------------------------------------------------------------------|
G|---------------------------------------------------------------------------|
D|---------2h5---------------------2h5---------------------------------------|
A|-----2-----------4---0-------2-----------4---0-----------------------------|
D|-5-----------------------5-------------------------------------------------|

   G                       G
e|---------------------------------------------------------------------------|
B|---------------------------------------------------------------------------|
G|---------0h2---------------------0h2---------------------------------------|
D|-----0-----------------------0---------------------------------------------|
A|-----------------4---0-------------------4---0-----------------------------|
D|-5-----------------------5-------------------------------------------------|

   G                       G
e|---------------------------------------------------------------------------|
B|---------------------------------------------------------------------------|
G|---------0h2---------------------0h2---------------------------------------|
D|-----0-----------------------0---------------------------------------------|
A|-----------------4---0-------------------4---0-----------------------------|
D|-5-----------------------5-------------------------------------------------|

   N.C.
e|---------------------------------------------------------------------------|
B|---------------------------------------------------------------------------|
G|-2-------------------------------------------------------------------------|
D|---------------------------------------------------------------------------|
A|--------4----0-------------------------------------------------------------|
D|---------------------------------------------------------------------------|

   D
e|---------------------------------------------------------------------------|
B|---------------------------------------------------------------------------|
G|---------------------------------------------------------------------------|
D|-0-------------------------------------------------------------------------|
A|-----2---------------------------------------------------------------------|
D|---------5-/-7---0---------------------------------------------------------|

   D
e|---------------------------------------------------------------------------|
B|---------------------------------------------------------------------------|
G|---------------------------------------------------------------------------|
D|-0-------------------------------------------------------------------------|
A|-----2-------------------7-\-5---------------------------------------------|
D|---------5-/-7---0---------------------------------------------------------|

   D
e|---------------------------------------------------------------------------|
B|---------------------------------------------------------------------------|
G|-------------------------2-----------------------2-------------------------|
D|-0-------------------------------------------------------------------------|
A|-----2---------------------------------------------------4---0-------------|
D|---------5-/-7---0---------------------------------------------------------|

   D
e|---------------------------------------------------------------------------|
B|---------------------------------------------------------------------------|
G|---------------------------------------------------------------------------|
D|-0-------------------------------------------------------------------------|
A|-----2-------------------7-\-5---------------------------------------------|
D|---------5-/-7---0---------------------------------------------------------|

   D
e|---------------------------------------------------------------------------|
B|---------------------------------------------------------------------------|
G|-------------------------2-------------------------------------------------|
D|-0-------------------------------------------------------------------------|
A|-----2---------------------------------------------------------------------|
D|---------5-/-7---0---------------------------------------------------------|

   D
e|---------------------------------------------------------------------------|
B|---------------------------------------------------------------------------|
G|---------------------------------------------------------------------------|
D|-0-------------------------------------------------------------------------|
A|-----2-------------------7-\-5---------------------------------------------|
D|---------5-/-7---0---------------------------------------------------------|

   D
e|---------------------------------------------------------------------------|
B|---------------------------------------------------------------------------|
G|-------------------------2~~~~~~~~~~~~~~~~---------------------------------|
D|-0-------------------------------------------------------------------------|
A|-----2---------------------------------------------------------------------|
D|---------5-/-7---0---------------------------------------------------------|

   D
e|---------------------------------------------------------------------------|
B|---------------------------------------------------------------------------|
G|------------------------------------------------------2~~~~~~~~~~~~~~~~----|
D|-0-------------------------------------------------------------------------|
A|-----2---------------------------------------------------------------------|
D|---------5-/-7---0---------------------------------------------------------|

************************************

| /   slide up
| \   slide down
| h   hammer-on
| p   pull-off
| ~   vibrato
| +   harmonic
| x   Mute note
| b   Bend
| pb  Pre-bend
| br  Bend release
| pbr Pre-bend release
| brb Bend release bend

************************************
Tuch chords by Fs Blumm