Song name
# A B C D E F G H I J K L M N O P Q R S T U V W X Y Z

Ft Island - First Kiss tab



Standard Tuning

intro

1st time (solo)
E|------------------------------------------|
B|------------------------------------------|
G|2h3--3-3--2-3--3~---2h3--3-3-5-5/7-5-3-2--|
D|------------------------------------------|
A|------------------------------------------|
E|------------------------------------------|

2nd time (solo)
E|------------------------------------------|
B|------------------------------------------|
G|2h3--3----2-3--3~---2h3--3-3-5-5/7-5-3-2--|
D|-------3----------------------------------|
A|------------------------------------------|
E|------------------------------------------|

2nd guitar 2x
E|----x------x-----x------x-----x------x------x--------|
B|----x------x---1-x-1--1-x---3-x-3--3-x------x--------|
G|--3-x-3--3-x---2-x-2--2-x---3-x-3--3-x----8-x-10-10--|
D|--3-x-3--3-x-3---x-3--3-x-5---x-5--5-x-0--8-x-10-10--|
A|1---x-1--1-x-----x------x-----x------x--6---x-8--8---|
E|----x------x-----x------x-----x------x------x--------|




verse
E|----x------x-----x------x-----x------x------x--------|
B|----x------x---1-x-1--1-x---3-x-3--3-x------x--------|
G|--3-x-3--3-x---2-x-2--2-x---3-x-3--3-x----8-x-10-10--|
D|--3-x-3--3-x-3---x-3--3-x-5---x-5--5-x-0--8-x-10-10--|
A|1---x-1--1-x-----x------x-----x------x--6---x-8--8---|
E|----x------x-----x------x-----x------x------x--------|

pre chorus
E|----x------x-----x------x-----x------x-----x------x--|
B|--3-x-3--3-x---3-x-3--3-x---3-x-3--3-x-----x------x--|
G|--3-x-3--3-x---2-x-2--2-x---0-x-0--0-x---8-x-8--8-x--|
D|1---x-1--1-x-0---x-0--0-x-----x------x---8-x-8--6-x--|
A|----x------x-----x------x-3---x-3--3-x-6---x-6--6-x--|
E|----x------x-----x------x-----x------x-----x------x--|


E|----x------x-----x------x-----x------x--|
B|--3-x-3--3-x---3-x-3--3-x---3-x-3--3-x--|
G|--3-x-3--3-x---2-x-2--2-x---0-x-0--0-x--|
D|1---x-1--1-x-0---x-0--0-x-----x------x--|
A|----x------x-----x------x-3---x-3--3-x--|
E|----x------x-----x------x-----x------x--|


E|6~--8~--5~--7~----|
B|4~--6~--6~--8~----|
G|3~--5~--5~--7~----|
D|------------------|
A|------------------|
E|------------------|


chorus
E|----x-------x-----x-----x-----x-----x---------x--------|
B|----x-------x---8-x-8-8-x-----x-----x---------x--------|
G|5-5-x--5-5--x---7-x-7-7-x---7-x-7-7-x------10-x-10-10--|
D|5-5-x--5-5--x-5---x-5-5-x---7-x-7-7-x------10-x-10-10--|
A|3-3-x--3-3--x-----x-----x-5---x-5-5-x-5/-8----x--8--8--|
E|----x-------x-----x-----x-----x-----x---------x--------|

E|------------------|
B|------------------|
G|4~--5~--10~--9~---|
D|4~--5~--10~--9~---|
A|2~--3~---8~--7~---|
E|------------------|


E|6~~---3~--5~----|
B|4~~---4~--6~----|
G|3~~---3~--5~----|
D|5~~-------------|
A|----------------|
E|----------------|


verse 2
E|----x------x-----x------x-----x------x------x--------|
B|----x------x---1-x-1--1-x---3-x-3--3-x------x--------|
G|--3-x-3--3-x---2-x-2--2-x---3-x-3--3-x----8-x-10-10--|
D|--3-x-3--3-x-3---x-3--3-x-5---x-5--5-x-0--8-x-10-10--|
A|1---x-1--1-x-----x------x-----x------x--6---x-8--8---|
E|----x------x-----x------x-----x------x------x--------|


pre chorus 2
E|---------------------|
B|3~~--3~~--3~~--------|
G|3~~--2~~--0~~--8~~---|
D|1~~--0~~--x----8~~---|
A|----------3~~--6~~---|
E|---------------------|


E|----x------x-----x------x-----x------x--|
B|--3-x-3--3-x---3-x-3--3-x---3-x-3--3-x--|
G|--3-x-3--3-x---2-x-2--2-x---0-x-0--0-x--|
D|1---x-1--1-x-0---x-0--0-x-----x------x--|
A|----x------x-----x------x-3---x-3--3-x--|
E|----x------x-----x------x-----x------x--|


E|6~--8~--5~--7~----|
B|4~--6~--6~--8~----|
G|3~--5~--5~--7~----|
D|------------------|
A|------------------|
E|------------------|


2nd chorus
E|----x-------x-----x-----x-----x-----x---------x--------|
B|----x-------x---8-x-8-8-x-----x-----x---------x--------|
G|5-5-x--5-5--x---7-x-7-7-x---7-x-7-7-x------10-x-10-10--|
D|5-5-x--5-5--x-5---x-5-5-x---7-x-7-7-x------10-x-10-10--|
A|3-3-x--3-3--x-----x-----x-5---x-5-5-x-5/-8----x--8--8--|
E|----x-------x-----x-----x-----x-----x---------x--------|

E|------------------|
B|------------------|
G|4~--5~--10~--9~---|
D|4~--5~--10~--9~---|
A|2~--3~---8~--7~---|
E|------------------|


E|6~~---3~--5~----|
B|4~~---4~--6~----|
G|3~~---3~--5~----|
D|5~~-------------|
A|----------------|
E|----------------|


solo

guitar 1
E|--------------------------------------------|
B|-------/6------------------3-/6-3-----------|
G|2h3-3-----2-3-3~---2h3-3-5--------5--3-2~---|
D|--------------------------------------------|
A|--------------------------------------------|
E|--------------------------------------------|
 |
 |
 |
 |guitar 2 (play the same thing through the whole solo)
E|----x------x-----x------x-----x------x------x--------|
B|----x------x---1-x-1--1-x---3-x-3--3-x------x--------|
G|--3-x-3--3-x---2-x-2--2-x---3-x-3--3-x----8-x-10-10--|
D|--3-x-3--3-x-3---x-3--3-x-5---x-5--5-x-0--8-x-10-10--|
A|1---x-1--1-x-----x------x-----x------x--6---x-8--8---|
E|----x------x-----x------x-----x------x------x--------|


guitar 1
E|--------------------------------------------|
B|-------/6-----------------------------------|
G|2h3-3-----2-3-3~--2h3-3--5-3-/7--5-3-2-0----|
D|-----------------------------------------3--|
A|--------------------------------------------|
E|--------------------------------------------|



*then theres a piano break
*then you do the chorus a few times
*if you are wise with music, then you will be able to figure
out how many times each part is played, how it is played, and
whatever else you need to know to learn the song
Tap to rate this tab
# A B C D E F G H I J K L M N O P Q R S T U V W X Y Z