Song name
# A B C D E F G H I J K L M N O P Q R S T U V W X Y Z

Ft Island - Baby Love chords

Highlighted       Show chord diagrams
| Ebm7  Ab | DbM7  Bbm7 | Ebm7  Ab | DbM7  Bbm7 |

Ebm7   Ab   DbM7   Bbm7
eoneudeot barame sillyeo nae jameul kkaeuneun
Ebm7   Ab   DbM7   Bb7sus4   Bb7/Eb   Bb7/F   Ebm7
dalkolhan neoui soksagimi (tturuttuttuttu)
Ebm7   Ab   DbM7   Bb7sus4   Bb7
kkumeseo bodeon sinbiroun geu miso
Ebm7   Ab
nuni busidorok areumdawo

Ebm7   Ab
saranghae Baby Baby Baby love
DbM7   Bbm7
Honey Honey Honey love
Ebm7   Fm   Ebm   Ddim
neoman neoman saranghae yeongwontorok
Ebm7   Ab
gieokhae oneul oneul oneuldo
DbM7   Bb7sus4   Bb7
naeil naeil naeildo
Ebm7   Ab7sus4   Ab7   Dbsus4   Db
oneulboda naeil deo neol saranghalge

| Ebm7  Ab | DbM7  Bb7sus4  Bb7/Eb  Bb7/F | Ebm7 |

Ebm7   Ab   DbM7   Bb7sus4   Bb7
sujupge hadeon neowaui ip machum
Ebm7   Ab
sumi meojeulmankeum tteolligehae

CHORUS

| Ebm7  Ab | DbM7  Bb7sus4  Bb7 | Ebm7  Ab7sus4  Ab7 | Dbsus4  Db |

-----------------------------------------------------------------|
----------------------------------------------------------11s3---|
-----6-----6--8--s10--10b11--8----6--5--6--s8--10----------------|
--6-----8--------------------------------------------------------|
-----------------------------------------------------------------|
-----------------------------------------------------------------|

-------10--11--13--13b14--b14r13--11--16----14--14b15r14------------------------|
--11-----------------------------------------------------------------14---------|
---------------------------------------------------------------------------14---|
--------------------------------------------------------------------------------|
--------------------------------------------------------------------------------|
--------------------------------------------------------------------------------|

--16b17--b17--16b17--16--14--13---------|
----------------------------------------|
----------------------------------------|
----------------------------------------|
----------------------------------------|
----------------------------------------|


Bbm7   Ab   Gb   Gb-Gb-Fm-Ebm-Bbm7-Bbm7
niga naui yeojaraneunge nan gomaulppuniya
Bbm7   Ab   Gb/Db   Ab   A
naega neoui namjaraneunge gomawo

Em7   A
saranghae Baby Baby Baby love
DM7   Bm7
Honey Honey Honey love
Em7   F#m   Em   D#dim
manhi manhi saranghae yaksokhalkke
Em7   A
gieokhae oneul oneul oneuldo
DM7   B7sus4   B7
naeil naeil naeildo
Em7   A7sus4   A7   Dsus4   D
oneulboda naeil deo neol saranghalge

| Em7  A | DM7  Bm7 | Em7  A | DM7  B7sus4  B7 |

Credit : Guitartoki
Tap to rate this tab
 
# A B C D E F G H I J K L M N O P Q R S T U V W X Y Z