Song name
# A B C D E F G H I J K L M N O P Q R S T U V W X Y Z

Ft Island - Even For 1 Minute Or 1 Second chords

Highlighted       Show chord diagrams
C  G  Am7  FM7  G7sus4  G  C

C   F   G   C
kaseumi mudyo mollanna-bwa
F   G   Am7
olmana saranghaesson-neunji
F   D7   G7sus4   G
ijesoya noye binjariga apawa

C   F   G   C
miryonhagedo akkyonna-bwa
F   G   Am7
saranghanda-neun keu mar hana
F   D7   G7sus4   G
kaseum kkeute jakku gollyo mogi meyowa

C   G   Am7
niga optdamyon nae gyote optdamyon
F   G7sus4   G
to sal iyujo-cha optja-nha
C   G   Am7
no obshin il-bun il-chodo an dwi-neun nal
FM7   G7sus4   G
iron nal wae molla

C   F   G   C
odiro kaya nol chajeul-chi
F   G   Am7
ottohke haeya butjabeul-chi
F   D7   G7sus4   G
ttonajima butagiya jebal torawa

C   G   Am7
niga optdamyon nae gyote optdamyon
F   G7sus4   G
to sal iyujo-cha optja-nha
C   G   Am7
no obshin il-bun il-chodo an dwi-neun nal
FM7   G7sus4
iron nal wae molla

G   C   G   Am7
noman it-damyon nae gyote it-damyon
F   G7sus4   G
tareun gon irhodo kwaen-cha-nha
C   G   Am7
nae nameun shigan sarang noyege modu
FM7   G7sus4   G   C
sseul su itke jul su itke torawa

C   G   Am7   F   G7sus4   G
C   G   Am7   FM7   G7sus4   G

--------------------------------3------3-------------------------------------|
------------------------1---s5-----s3-----0h1--0-------------------1--1s5--3-|
-----------------0--0h2---------------------------0h2--0---0--0h2------------|
---------0--0h2--------------------------------------------------------------|
------3----------------------------------------------------------------------|
-0h3-------------------------------------------------------------------------|

-------3--3h5--3--------------3--8--12--15------15---------------------------|
--1s5-------------3--2--3--5----------------15------12s13--12s13s12--10--8---|
-----------------------------------------------------------------------------|
-----------------------------------------------------------------------------|
-----------------------------------------------------------------------------|
-----------------------------------------------------------------------------|

---------12--10--8-----------------|
--1s8-8-------------10b11--10--8---|
-----------------------------------|
-----------------------------------|
-----------------------------------|
-----------------------------------|

C   G   Am7
nan noramyon nol wihaesoramyon
F   G7sus4   G
onjekkajirado kidaryo
C   G   Am7
nae gaseum chonbon manbon gyobke haedo
FM7   G7sus4   G
nan gwaen-cha-nha nan gwaen-cha-nha
C               G   Am7   F   G7sus4   G
noramyon
C               G   Am7   F   G7sus4   G
noramyon
                 Cadd9
noramyon
Tap to rate this tab
# A B C D E F G H I J K L M N O P Q R S T U V W X Y Z