Song name
# A B C D E F G H I J K L M N O P Q R S T U V W X Y Z

Fu Manchu - Tilt tab

Help us improve GuitareTab! Take a short survey!
Riff 1 - Intro and verse
D:|----------------------------------|
A:|----------------------------------|
F:|----------------------------------|
C:|--------5------------777888999----|
G:|----5-7---7---7-5----777888999----|
D:|------------------7--555666777----|

Chorus
D:|----------------------------------------------|
A:|----------------------------------------------|
F:|---------7--5-7b------------------------------|
C:|--99---7-7--------(x3)--55555555-7777---------|
G:|--99---7-5--------------55555555-7777---------|
D:|--77---5----------------33333333-5555---------|

Riff 1

Chorus

Riff 2 - Bridge
D:|----------------------------------------------------|
A:|----------------------------------------------------|
F:|--------------------------------------9-7-----------|
C:|-----5-----5-----5-7-7-5-------(x8)---9-7-7-9-------|
G:|-5-7---7-7---7-7---------7-5----------7-5-7-9-------|
D:|------------------------------------------5-7-------|
                         
D:|----------------------------------|
A:|----------------------------------|
F:|-9-7------------------------------|
C:|-9-7-7-9999999999-----------------|
G:|-7-5-7-9999999999-----------------|
D:|-----5-7777777777-----------------|

Riff 1

Ending
D:|----------------------------------------|
A:|----------------------------------------|
F:|-----------------------------------9----|
C:|--------5------------777888999-----9----|
G:|----5-7---7---7-5----777888999-----7----|
D:|------------------7--555666777-x3-------|
Related for Tilt tab