Song name
# A B C D E F G H I J K L M N O P Q R S T U V W X Y Z

Fu Manchu - I Wanna Be tab

Tabbed by Nick Rosendahl on 1/11/2007.

Tune down one whole step.

Intro/Verses
D---------------------------------|
A---------------------------------|
F---------------------------------|
C---9--9---12-12-7-9--9-9-9-9-9-9-|
G---7--7---10-10-5-7--7-7-7-7-7-7-|
D---------------------0-0-0-0-0-0-|

In the second verse, add this after the main riff
D----------|
A----------|
F--7-9-7---|
C--------9-|
G----------|
D----------|

Chorus
D--------------------------------|
A--------------------------------|
F--------------------------------|
C-----------7-7-7----------9-9-9-|
G--5-5-5----5-5-5--7-7-7---7-7-7-|
D--3-3-3-----------5-5-5---------|

Bridge
D-------------------------------------|
A-------------------------------------|
F-------------------------------------|
C-------------------------------------|
G------------------------5-7(bend)----|
D--5-7---5-7---5-7---5-7----------7-5-|

Another riff before the drum solos
D----------------------------------|
A----------------------------------|
F----------------------------------|
C-----------5----------------------|
G-------------7-5-7--7-5---5-------|
D--5-7-7-7---------------7---7-6-5-|
Tap to rate this tab
 
# A B C D E F G H I J K L M N O P Q R S T U V W X Y Z