Song name
# A B C D E F G H I J K L M N O P Q R S T U V W X Y Z

Fu Manchu - Hey tab

"Hey" by Fu Manchu, from "Start the Machine". Tabbed by Nick Rosendahl on 1/12/2007.
Tune guitar down one whole step.

Intro
D---------------------------------------------------------------|
A---------------------------------------------------------------|
F---------------------------------------------------------------|
C-----------------------------------------------------------5---|
G--10-10-10-8--9-9--10-10-10-8--9-9--10-10-10-8--9-9--5-7-7---6-|
D--8--8--8--6--7-7--8--8--8--6--7-7--8--8--8--6--7-7------------|

Second and third verses (finish w/ same notes, different pattern)
D------------------------------|
A------------------------------|
F------------------------------|
C-----5-8-------------5----5-8-|
G--7--3-6--5-7-----7--3-5--3-6-|
D--5-------3-5-----5----3------|

Next riff
D---------------------------|
A---------------------------|
F---------------------------|
C--10-12-12-----------------|
G--8--10-10--10-10-10-12-12-|
D------------8--8--8--10-10-|

Ending to the riff above ^^
D---------------------------|
A---------------------------|
F---------------------------|
C----------------7--5-------|
G----------8-----5--3--5--7-|
D--8-10-10---9---------3--5-|
Tap to rate this tab
# A B C D E F G H I J K L M N O P Q R S T U V W X Y Z