Song name
# A B C D E F G H I J K L M N O P Q R S T U V W X Y Z

Fu Manchu - Mongoose tab

This is the first solo of this song.
I guess it's quite exactly!

The guitar is tuned down a whole step:

DAFCGD

D:---7-----7-----7------7-----7-----7--------------------------------------|
A:---10b12-10b12-10bb12-10b12-10b12-10b12----------------------------------|
F:-------------------------------------------------------------------------|
C:-------------------------------------------------------------------------|
G:-------------------------------------------------------------------------|
D:-------------------------------------------------------------------------|

D:-------------------------------------------------------------------------|
A:--10b12rb10-10p8--10--8--10b12rb10-10p8--10--8--10b12rb10-10p8--10--8----|
F:-------------------------------------------------------------------------|
C:-------------------------------------------------------------------------|
G:-------------------------------------------------------------------------|
D:-------------------------------------------------------------------------|


D:-------------------------------------------------------------------------|
A:--------------------------------8-----8--10--8--10--10b12rb10-10p8---8---|
F:--9-7-9--7h9p7------------9--9-----9-------------------------------9---9-|
C:-----------------9--7--9-------------------------------------------------|
G:-------------------------------------------------------------------------|
D:-------------------------------------------------------------------------|

D:------------------------------------------------------------------------|
A:------------------------------------------------------------------------|
F:--9--9--9--7------------------------------------------------------------|
C:--------------7b9---7p5-------------------------------------------------|
G:---------------------------7--------------------------------------------|
D:------------------------------------------------------------------------|

Have fun
Tap to rate this tab
# A B C D E F G H I J K L M N O P Q R S T U V W X Y Z