Song name
# A B C D E F G H I J K L M N O P Q R S T U V W X Y Z

Fu Manchu - Squash That Fly tab

Tabbed By James 10/23/05
Fu Manchu "Squash That Fly"
Tuning: drop D
/= slide up
\= slide down

This is what i could figure out from this song, it is pretty accurate.
       intro                       chorus  x6
e|------------------|-------------------------------------|
b|------------------|-------------------------------------|
g|------------------|-------------------------------------|
d|------------------|-777777777777777/-33----33-55----55--| 
a|---8-5-3-0--------|-555555555555555/-11-33-11-33-55-33--|
d|--------6-5-3--0--|---------------------33-------55-----|

                   chorus 2 x2
e|-------------------------------------------------------|
b|-------------------------------------------------------|
g|-------------------------------------------------------|
d|--7-3-33-5-7-------------------------------------------| 
a|--5-1-33-3-5-------------------------------------------|
d|-------------------------------------------------------|
               chorus x4
e|---------------------------------------|
b|---------------------------------------|
g|---------------------------------------|
d|---777777777777777/-33----33-55----55--| 
a|---555555555555555/-11-33-11-33-55-33--|
d|-----------------------33-------55-----|


                 chorus 2 x2
e|-------------------------------------------------------|
b|-------------------------------------------------------|
g|-------------------------------------------------------|
d|--7-3-33-5-7-------------------------------------------| 
a|--5-1-33-3-5-------------------------------------------|
d|-------------------------------------------------------|

                then the solo (havent yet figured it out)

              chorus x1
e|---------------------------------------|
b|---------------------------------------|
g|---------------------------------------|
d|---777777777777777/-33----33-55----55--| 
a|---555555555555555/-11-33-11-33-55-33--|
d|-----------------------33-------55-----|

chorus 2 x?
e|-------------------------------------------------------|
b|-------------------------------------------------------|
g|-------------------------------------------------------|
d|--7-3-33-5-7-------------------------------------------| 
a|--5-1-33-3-5-------------------------------------------|
d|-------------------------------------------------------|

Outro
e|-------------------------|
b|-------------------------|
g|-------------------------|
d|-------------------------|
a|---8-5-3-0-------55-33-5-|
d|--------6-5-3--0---------|

it may not be 100% accurate but i tried...it sounds good to me. Now have fun!

Tap to rate this tab
 
# A B C D E F G H I J K L M N O P Q R S T U V W X Y Z