Song name
# A B C D E F G H I J K L M N O P Q R S T U V W X Y Z

Fu Manchu - Supershooter tab

"Supershooter" by Fu Manchu.

 From the Album "In Search of...".
 Tabbed by Christian Reindel (creindel@gmx.de)

 Tuning:-all strings down a full step.

 Mainriff
 d|----------------------------------------------------|
 A|----------------------------------------------------|
 F|----------------------------------------------------|
 C|----------------------------------------------------| 
 G|-4--4-4-7-\-4-/-7-\-4-7-2----4--4-4-7-\-4-/-7-\-4---|
 D|-2--2-2-5-\-2-/-5-\-2-5-0----2--2-2-5-\-2-/-5-\-2---|

  Verse riff
 d|---------------------------------------------------|
 A|---------------------------------------------------|
 F|---------------------------------------------------|
 C|---------------------------------------------------| 
 G|--4-(4)-----7-(7)-------4-(4)------9-(9)--910-9----|
 D|--2-(2)-----5-(5)-------2-(2)------7-(7)--7-8-7----|
  
   space solo 
 d|------------------------------------------------------------------------|
 A|------------------------------------------------------------------------|
 F|------------------------------------------------------------------------|
 C|------------------------------------------------------------------------| 
 G|-5-(5)----4-(4)-----5-(5)----4-(4)-----2-(2)----4-(4)----2-(2)----4-(4)-|
 D|-3-(3)----2-(2)-----3-(3)----2-(2)-----0-(0)----2-(2)----0-(0)----2-(2)-|

song structure:

intro
mainriff - 4 times
verseriff - 4 times
mainriff - 2 times
mainriff - 2 times with guitarsolo
verseriff - 4 times
mainriff - 2 times
space solo
mainriff - 2 times
space solo
mainriff - 2 times
end.
Tap to rate this tab
# A B C D E F G H I J K L M N O P Q R S T U V W X Y Z